Cifra Club

Aprenda

Another Perfect Day

American Hi-Fi

Cifra: Principal (violão e guitarra)
tom: D
Versão 1
-======-



intro:
 |: B B/A# | G#m F# |  C#m  |   B   :|

verso:
 |:   B   |  G#m  |  C#m  |   E   :|

I'm holding on, waiting for your call
it's simple but I can't explain this
I'm sinking down, I feel like I could die
I'm falling off I don't know why

refrão:
 |: B B/A# | G#m F# |  C#m  |   B   :|   B   |

I still believe it when you say
it's another perfect day

verso:
 |:   B   |  G#m  |  C#m  |   E   :|

so I might try, to leave it all behind
I know not so bright now
I'll say goodbye, cause nothing good can last
you wear and fade you're nowhere fast

bridge:
 |  G#m  |  D#m  |  C#m  |   B   |

and today, I don't nkow how
to keep it all inside
but I guess I'll let it slide

refrão:
 |: B B/A# | G#m F# |  C#m  |   B   :|

I still believe it when you say
it's another perfect day

solo:
 |:   B   |  C#m  :|

e|--------2-------------------------|
B|-4---------4s5s4s5s4--------------|
G|---4-----------------6--6s8-6---8-|
D|-----4----------------------------|
A|----------------------------------|
E|----------------------------------|

e|--------2------------------------|
B|-4---------4s5s4s5s4-------------|
G|---4-----------------6--6-4-8-6--|
D|-----4---------------------------|
A|---------------------------------|
E|---------------------------------|

bridge:
 |  G#m  |  D#m  |  C#m  |   B   |

and today, I don't know why
I thought that it was real
but it's no big deal

refrão:
 |: B B/A# | G#m F# |  C#m  |   B   :|

I still believe it when you say
it's another perfect day

solo:
 |:   B   |  C#m  :|

e|--------2------------------------|
B|-4---------4s5s4s5s4-------------|
G|---4-----------------6-6s8-6---8-|
D|-----4---------------------------|
A|---------------------------------|
E|---------------------------------|
         ...I don't know how, I don't know how
e|--------2------------------------|
B|-4---------4s5s4s5s4-------------|
G|---4-----------------6--6-4------|
D|-----4---------------------------|
A|---------------------------------|
E|---------------------------------|
         ...I don't know how to let it slide

_______________________________________________________





Versão 2
-======-

intro: ( C C/B Am G D F ) 2x

( C  C/B  Am  G  D  F7+/11+  )
I'm holding on, waiting for your call
it's simple but I can't explain this
I'm sinking down, I feel like I could die
I'm falling off I don't know why

( C  C/B  Am  G  D  F7+/11+ )
I still believe it when you say
it's another perfect day

( C*  D  F7+/11+ )         
so I might try, to leave it all behind
I know not so bright now
I'll say goodbye, cause nothing good can last
you wear and fade you're nowhere fast

(Am  Am7+  D  F7+/11+)
and today, I don't nkow how
to keep it all inside
but I guess I'll let it slide

( C  C/B  Am  G  D  F7+/11+ )
I still believe it when you say
it's another perfect day

Base do Solo ( C  D )
Solo:
|-12------15---12b-(12b)-(12b)----10--10b(full)--10--10b(full)---------------------|
|---13-------------------------13--------------------------------------------------|
|-----12---------------------------------------------------------------------------|
|----------------------------------------------------------------------------------|
|----------------------------------------------------------------------------------|
|----------------------------------------------------------------------------------|

|-12------15---12b-(12b)-(12b)---10----------10-------13b(full)13d-----------------|
|---13------------------------13----13--12-13--------------------------------------|
|-----12----------------------------------------12---------------------------------|
|----------------------------------------------------------------------------------|
|----------------------------------------------------------------------------------|
|----------------------------------------------------------------------------------|

(Am  Am7+  D  F7+/11+)
and today, I don't know why
I thought that it was real
but it's no big deal

( C  C/B  Am  G  D  F7+/11+ )
I still believe it when you say
it's another perfect day

Base do solo ( C  D )
Solo:
|-12------15---12b-(12b)-(12b)----10--10b(full)--10--10b(full)---------------------|
|---13-------------------------13--------------------------------------------------|
|-----12---------------------------------------------------------------------------|
|----------------------------------------------------------------------------------|
|----------------------------------------------------------------------------------|
|----------------------------------------------------------------------------------|

|-12------15---12b-(12b)-(12b)---10----------10-------13b(full)13d-----------------|
|---13------------------------13----13--12-13--------------------------------------|
|-----12----------------------------------------12---------------------------------|
|----------------------------------------------------------------------------------|
|----------------------------------------------------------------------------------|
         ...I don't know how to let it slide

___________________________________________________
b - Bend.
d - Soltar Bend.
* - segurar dois tempos a nota.
Acordes

  C    C/B   Am     G     D    Am7+   F7+/11+
| x | | x | | x | | 3 | | x | | x |    | 1 |
| 3 | | 2 | | 0 | | 2 | | x | | 0 |    | 3 |
| 2 | | 0 | | 2 | | 0 | | 0 | | 3 |    | 3 |
| 0 | | 0 | | 2 | | 0 | | 2 | | 2 |    | 2 |
| 1 | | 1 | | 1 | | 2 | | 3 | | 2 |    | 0 |
| 0 | | 0 | | 0 | | 2 | | 2 | | 0 |    | 0 |
Composição de Stacy Jones
Colaboração e revisão:
  • Luis Sano
22.867 exibições
    • ½ Tom
    • A
    • Bb
    • B
    • C
    • Db
    • D
    • Eb
    • E
    • F
    • F#
    • G
    • Ab
  • Adicionar à lista

    0 comentários

    Ver todos os comentários

    Conseguiu tocar?

    0 Tocaram 0 Ainda não

    Grave um vídeo tocando Another Perfect Day e nos envie!

    00:00 / 00:00
    Outros vídeos desta música
    Repetir Qualidade Automático
    Outros vídeos desta música
    00:00 / 00:00
    Automático

    Cifra Club Pro

    Aproveite o Cifra Club com benefícios exclusivos e sem anúncios
    Cifra Club Pro
    Aproveite o Cifra Club com benefícios exclusivos e sem anúncios
    OK