Cifra Club

Aprenda

Chalice of Agony

Avantasia

Cifra: Principal (violão e guitarra)
tom: G
Intro;
________________________________
                                            2 vezes         |
|----|--------|----|-------||--------------------|---------------|
|----|--------|----|-------||--------------------|---------------|
|----|--------|----|-5-----||--------------------|---------------|
|-7~-|-5-2-3~-|-5--|-3-5---||-7------7-----------|-5-2-3---------|
|-5~-|-3-0-1~-|-3--|---3-5-||-5-5555-5-5555-5555-|-3-0-1-11-1111-|
|----|--------|----|-----3-||--------------------|---------------|

|--------------------|---------------|--------------------|--------------
|--------------------|---------------|--------------------|--------------
|--------------------|-5-------------|--------------------|--------------
|-5------5-----------|-3-5-----------|-7------7-----------|-5-2-3--------
|-3-3333-3-3333-3333-|---3-5---------|-5-5555-5-5555-5555-|-3-0-1-11-1111
|--------------------|-----3-33-3333-|--------------------|--------------

|--------------------|-------|---|-------|
|--------------------|-------|---|-------|
|--------------------|-5-----|---|-------|
|-5------5-----------|-3-5---|-3-|-5-----|
|-3-3333-3-3333-3333-|---3-5-|-1-|-3---0-|
|--------------------|-----3-|---|-------|

Canto 1; 2 x

|------------------|------------------|----------------|-----------------
|------------------|------------------|----------------|-----------------
|------------------|------------------|----------------|-----------------
|------------------|------------------|----------------|-5---------------
|-5555555555555555-|-5555555555555555-|-5--------------|-333333333333333-
|------------------|------------------|-33333333333333-|-----------------

|-------------------|-------------------|-------------------|
|-------------------|-------------------|-------------------|
|-------------------|-------------------|-------------------|
|-3---------------5-|-7-----------------|-------------------|
|-1-111-1111-1111-3-|-5-555555555555555-|-5-----------------|
|-------------------|-------------------|-3-333333333333333-|

|-----------|
|-----------|
|-----------|
|-2---------|
|-0---------|
|---3~-1~-0-|

Ponte;

|----|----|----|----|----|----|----|---|---|
|----|----|----|----|----|----|----|---|---|
|-3~-|----|-7~-|-5~-|-3~-|----|-3~-|-2-|-5-|
|-3~-|-5~-|-7~-|-5~-|-3~-|-5~-|-3~-|-2-|-5-|
|-1~-|-5~-|-5~-|-3~-|-1~-|-5~-|-1~-|-0-|-3-|
|----|-3~-|----|----|----|-3~-|----|---|---|

Refrão; 2x

|----|-----|-----------------|--------------|-----------------|
|----|-----|-----------------|--------------|-----------------|
|-7~-|-5-2-|-----------------|--------------|-----------------|
|-7~-|-5-2-|-3----3----------|----------3-5-|-----------------|
|-5~-|-3-0-|-111111111111111-|-11111111-1-3-|-----------------|
|----|-----|-----------------|--------------|-111111111111111-|

|--------------|------------------|------------------|
|--------------|------------------|------------------|
|--------------|------------------|------------------|
|--------------|------------------|------------------|
|----------5-3-|-3333333333333333-|-0000000000000000-|
|-11111111-3-1-|------------------|------------------|

Repetir tudo;

|------|
|------|
|------|
|-3--5-|
|-1--3-|
|------|

Harmonia; 2 x;

     G
|-13111011131513111311101113151311-|-1311101113151311131110--10-------|
|----------------------------------|-----------------------13--131110-|
|----------------------------------|----------------------------------|
|----------------------------------|----------------------------------|
|----------------------------------|----------------------------------|
|----------------------------------|----------------------------------|
      D
|----------------------------------|-------------------|
|-13111011131513111311101113151311-|-131110--10--------|
|----------------------------------|-------12-1210910~-|
|----------------------------------|-------------------|
|----------------------------------|-------------------|
|----------------------------------|-------------------|
     F
|-11108101113111011108101113111011-|-11108101113111011108--8------|
|----------------------------------|---------------------11-11108-|
|----------------------------------|------------------------------|
|----------------------------------|------------------------------|
|----------------------------------|------------------------------|
|----------------------------------|------------------------------|

     C
|----------------------------------|-----------------|
|-11108101113111011108101113111011-|-11108--8--------|
|----------------------------------|------10-1097-9~-|
|----------------------------------|-----------------|
|----------------------------------|-----------------|
|----------------------------------|-----------------|

Solo;

  D    D    G                        Eb                           Bb
|---|----|-----|----------|--------|----------|--------|------------|
|-7-|-10-|-----|----------|-16~-18-|-18-18pbr-|-18~-15-|-18br-16-15-|
|---|----|-17b-|--17br-15-|--------|----------|--------|------------|
|---|----|-----|----------|--------|----------|--------|------------|
|---|----|-----|----------|--------|----------|--------|------------|
|---|----|-----|----------|--------|----------|--------|------------|
  
  F      Eb                             F                 G
|-----|-------------------------------|---------------|-----15-17-18-|
|-13~-|-15-16-15h16p15p13-15-13-------|---------------|--------------|
|-----|-------------------------15-14-|-15~--14h15p14-|-12~----------|
|-----|-------------------------------|---------------|--------------|
|-----|-------------------------------|---------------|--------------|
|-----|-------------------------------|---------------|--------------|

   Eb       Bb           ½         F           Eb    F         G
|-18~-15-|-15~---18-20-|-20b-18-|-22br-20-18-|-17~-|-17br-17-|----|
|--------|----20-------|--------|------------|-----|---------|-20-|
|--------|-------------|--------|------------|-----|---------|----|
|--------|-------------|--------|------------|-----|---------|----|
|--------|-------------|--------|------------|-----|---------|----|
|--------|-------------|--------|------------|-----|---------|----|

Outro;

|----|----|----|----|---|---|
|----|----|----|----|---|---|
|-5~-|----|-8~-|----|---|---|
|-5~-|-6~-|-8~-|--6-|-8-|-5-| 2 vezes;
|-3~-|-6~-|-6~-|--6-|-8-|-5-|
|----|-4~-|----|--4-|-6-|-3-|

Fazer isso 2 vezes;
|------------------|------------------|-----------------|-----------------
|------------------|------------------|-----------------|-----------------
|------------------|------------------|-----------------|-----------------
|-5----------------|------------------|-----------------|-----------------
|-3333333333333333-|-3333333333333333-|-6---------------|-----------------
|------------------|------------------|-444444444444444-|-444444444444444-

|------------------|-------------------|------------------|---------------
|------------------|-------------------|------------------|---------------
|------------------|-------------------|------------------|---------------
|-8----8-----------|-------------------|------------------|---------------
|-6666666666666666-|-66666666-6--------|-8----------------|-5-------------
|------------------|----------44444444-|-6666666666666666-|-3333333333333-

Passagem;

|-----|-----|---|------|----|
|-----|-----|---|------|----|
|-5---|-----|-5-|------|-7--|
|-5-8-|-6-8-|-5-|------|-7--|
|-3-8-|-6-8-|-3-|------|-5--|
|---6-|-4-6-|---|--12\-|----|

Repetir refrão apartir de Bb,

Final;

|-----|-----|-------|---|
|-----|-----|-------|---|
|-7-5-|-3-5-|-7---5-|-7-|
|-7-5-|-3-5-|-7---5-|-7-|
|-5-3-|-1-3-|-5---3-|-5-|
|-----|-----|-------|---|
Composição de Tobias Sammet
Colaboração e revisão:
  • Valker Renato
4.152 exibições
    • ½ Tom
    • A
    • Bb
    • B
    • C
    • Db
    • D
    • Eb
    • E
    • F
    • F#
    • G
    • Ab
  • Adicionar à lista

    0 comentários

    Ver todos os comentários

    Conseguiu tocar?

    0 Tocaram 0 Ainda não

    Grave um vídeo tocando Chalice of Agony e nos envie!

    00:00 / 00:00
    Outros vídeos desta música
    Repetir Qualidade Automático
    Outros vídeos desta música
    00:00 / 00:00
    Automático

    Cifra Club Pro

    Aproveite o Cifra Club com benefícios exclusivos e sem anúncios
    Cifra Club Pro
    Aproveite o Cifra Club com benefícios exclusivos e sem anúncios
    OK