Cifra Club

Aprenda

In Quest For

Avantasia

Cifra: Principal (violão e guitarra)
tom: C
(Versão para violão)

Intro:

   D        D4

e|-2------2-3-----3-5-7---------------------------------------------
B|-3----3-------3-------5-7-5---------------------------------------
G|-2--2-------2---------------7-7-6-4-2---4---2-4-7-6-4-2-4-2-------
D|--------------------------------------4---4-----------------4-2---
A|------------------------------------------------------------------
E|------------------------------------------------------------------

   D  D  D4 D4 ?  ?  ?         Bm       F#m      G              A

e|-2--2--3--3--5--5--5-7-7-5-7-2--2-----2--------3---------5----5---
B|-3--3--3--3--3--3--3---------3----3---2------2-3--------5-5---5---
G|-2--2--2--2--2--2--2---------4------4-2----2---4----4--6---6--6---
D|-----------------------------4--------4--4-----5---5--7-----7-----
A|-----------------------------2--------4--------5--5--7------------
E|-----------------------------2--------2--------3------------------



[Tree of Knowledge:]


D
Coming from the wastelands
        D4             D
Full of reason, common sense
            Bm              F#m
Where their principles are blocking minds
    G                A
And you don't understand

D
Giving you belive,
          D4               D
You never touch, you never see
           Bm              F#m
But if you dare to try to grip it
         G              A
You're accused for heresy


[Gabriel:]

F                C
Here I stand to find the truth
F               C
And for ought I know
D          A        Bm
You're the one to show me
F#m      G              A       D
You can tell my spirit how to grow

e|-----2-3-5-2-----2-3---
B|---3-------3---3-------
G|-2---------2-2---------
D|-----------------------
A|-----------------------
E|-----------------------


D
No, the more I try
             D4           D
The more confusion on my mind
        Bm          F#m
And no matter how I try
           G                  A
I feel my eyes seem to stay blind


[Tree of Knowledge:]

D                       D4             D
No use in analysing, forget about alchemy
             Bm            F#m
Because the secret of all truth
        G                      A
Is the quest for - and you'll feel

F                C
When you knock right on the door
 F                     C
"Forever locked" they say

   D     A         Bm      F#m
A little man will let you in,
     G               A         D4     D
For you have always tried - to get inside

F                    C                Dm
You're in quest for more to find the core
              Am               F
Your journey still ain't over
      C              Dm     A# C
Your quest is your purpose, go on
F                    C                Dm
You're in quest for more to find the core
              Am          F
It will be - never- over
      C             Dm      A# C
Your quest is your purpose, go on ...


F                    C                Dm
You're in quest for more to find the core
              Am               F
Your journey still ain't over
       C            Dm      A# c
Your quest is your purpose, go on
F                    C                Dm
You're in quest for more to find the core
              Am          F
It will be - never- over
       C            Dm      A# C
Your quest is your purpose, go on ...

F                    C                Dm   Am F
You're in quest for more to find the core
      C             Dm      A# C
Your quest is your purpose, go on
F                    C                Dm   
You're in quest for more to find the core
             Am           F
It will be - never- over
      C             Dm      A# C      F
Your quest is your purpose, go on ... on
Composição de Tobias Sammet
Colaboração e revisão:
  • Daniel Batista
6.881 exibições
    • ½ Tom
    • A
    • Bb
    • B
    • C
    • Db
    • D
    • Eb
    • E
    • F
    • F#
    • G
    • Ab
  • Adicionar à lista

    0 comentários

    Ver todos os comentários

    Conseguiu tocar?

    0 Tocaram 0 Ainda não

    Grave um vídeo tocando In Quest For e nos envie!

    00:00 / 00:00
    Outros vídeos desta música
    Repetir Qualidade Automático
    Outros vídeos desta música
    00:00 / 00:00
    Automático

    Cifra Club Pro

    Aproveite o Cifra Club com benefícios exclusivos e sem anúncios
    Cifra Club Pro
    Aproveite o Cifra Club com benefícios exclusivos e sem anúncios
    OK