Cifra Club

Aprenda

Reach Out From The Light

Avantasia

Cifra: Principal (violão e guitarra)
tom: B
Tune down a half step!!!

  Intro for Guitar 1
E-------------------------------------------------------------------------------
B-/17-14~-----12~---17-19-16~--12------------12-14-16--/17--14~----12~-17-19-16~
G---------13----------------------11-13---14--------------------13--------------
D-------------------------------------------------------------------------------
A-------------------------------------------------------------------------------
E-------------------------------------------------------------------------------

E----------------------------------------------------------11h14p11-------------
B-12------------12-14-16--/17--14~---12~-17-19-16~-12---12----------12----------
G----11-13---14-------------------13-----------------/11---------------11-11h13p
D-------------------------------------------------------------------------------
A-------------------------------------------------------------------------------
E-------------------------------------------------------------------------------

E-------------------------------------------------------------------------------
B---------------------/17--14~----12~-17-19-16~-12------------------------------
G-11---------------------------13-----------------------------------------------
D----13-11h13p11--------------------------------------------16-18-19----------16
A----------------14~------------------------------/16-18-19----------16-18-19---
E-------------------------------------------------------------------------------

                                                    Rhythm Guitar 2
E-----------------------16-17-19^-19^r(19)-19^----|-------------------------
B--------------16-18-19---------------------------|-------------------------
G--------16-18------------------------------------|-------------------------
D-18-19-------------------------------------------|-6---9-------4---2-------
A-------------------------------------------------|-4---7---6---2-----2-3-4-
E-------------------------------------------------|---------4---------------
                                                                   pm......|

E---------------------------------------------------------------------------|
B---------------------------------------------------------------------------|
G---------------------------------------------------------------------------|
D-6---9-------4--2---------6---------9---------6-4----------------6---------|
A-4---7---6---2----2-3-4---4-444444--7-777777------7-6--6---------4-444444--|
E---------4---------------------------------------------4-444444------------|
                            pm.....|  pm.....| pm.....|  pm.....|  pm.....| 

                                     Verse
E---------------------------------||--------------------------------------------
B---------------------------------||--------------------------------------------
G---------------------------------||--------------------------------------------
D-9--------6-4--------------------||-6-----6-------6-----6--------9-----9-------
A-7-777777-----7-6--6-------------||-4-444-4-44444-4-444-4-4444---7-777-7-77777-
E-------------------4-444444444---||--------------------------------------------
   pm............|   pm........|      pm..|  pm...|  pm..| pm...|  pm..| pm....|
 
                                                                     Fill 1
E------------------------------------------------------------------|------------
B------------------------------------------------------------------|------------
G------------------------------------------------------------------|------------
D-------------------1~--6-----6-------6-----6--------9-----9-------|-6-7-9-6-7-9
A-9-----9---------2-2~--4-444-4-44444-4-444-4-4444---7-777-7-77777-|------------
E-7-777-7-777777---------------------------------------------------|------------
   pm..| pm.....|        pm..| pm....| pm..| pm...|   pm..| pm....|  pm........|

                                                                       A.H.
E--------|--------------------------------------------------------------------
B--------|--------------------------------------------------------------------
G-9-8----|--------------------------------------------------------------------
D-----6~-|-6-----6-------6-----6--------9-----9-------------------------1~----
A--------|-4-444-4-44444-4-444-4-4444---7-777-7-77777--9-----9--------2-2~----
E--------|---------------------------------------------7-777-7-777777---------
  pm...|    pm..| pm....| pm..|  pm..|   pm..| pm....|  pm..|  pm....| pm..| 

                                                           Bridge
E--------------------------------------------------------|---------------------
B--------------------------------------------------------|---------------------
G--------------------------------------------------------|---------------------
D-6-----6-------6-----6--------9-----9-------------------|---------------------
A-4-444-4-44444-4-444-4-4444---7-777-7-77777-----4---6---|-7~--7--7-7---7--9---
E------------------------------------------------2---4---|-5~--5--5-5---5--7---
   pm..| pm....| pm..| pm..|    pm..|  pm...|

                             A.H.
E-------------------------------------------------------------------------------
B-------------------------------------------------------------------------------
G-------------------------------------------------------------------------------
D-----6---4---6---7---6---4---6~------6---4----6---7-6-7-6-4-----------------6--
A-4-4---4---4---4---4---4---4-----4-4---4---4----4-----------7-6-4~-(7)--4-4---4
E-------------------------------------------------------------------(5)---------
  pm..............................................................|     pm.....|
     A.H.           A.H.
E------------------------------------------------------------------------|
B------------------------------------------------------------------------|
G---------------------------------------6-4------------------------------|
D-4---6~-----6---7---6~------6---4---6~-----7-6-4----------4-4-----------|
A---4----4-4---4---4-----4-4---4---4--------------7-6-4~---6-6--9--7--9--|
E---------------------------------------------------------------7--5--7--|
 pm....................................................|
  Chorus
E-----------------------------------------------------------------------------
B-----------------------------------------------------------------------------
G-----------------------------------------------------------------------------
D-----------------------------------------------------------------------------
A-2------------------------------------7-------7----------------------4-------
E-0-0-0-0-0-0-0-0-0-0-0-0-0-0-0-0-0-0--5-5-5-5-5-5-5-5-5-5-4-4-4-4-4--2-2-2-2-
 pm.................................|   pm...| pm..................|  pm.....| 

E-------------------------------------------------------------------------------
B-------------------------------------------------------------------------------
G-------------------------------------------------------------------------------
D------------------------------4-------4----------------------------------------
A------------------------------2-2-2-2-2-2-2-2-2-2-0-0-0-0-0--6-----------------
E-2-2-2-2-2-2-2-2-2-2-2-2-2-2---------------------------------4-4-4-4-4-4-4-4-4-
 pm..........................|  pm....| pm..................|  pm..............|

E-------------------------------------------------------------------------------
B-------------------------------------------------------------------------------
G-------------------------------------------------------------------------------
D--------------------6----------------------------------------------------------
A--------------------4-4-4-4-4-4-4-4-4-4-7-4-6-2--7-----------------------------
E-4-4-4-4-4-4-4-4-4-------------------------------5-5-5-5-5-5-5-5-5-5-5-5-5-5-5-
 pm.................| pm........................|  pm..........................|

E-------------------------------------------|----------------|----------------|
B-------------------------------------------|----------------|----------------|
G-------------------------------------------|--Repeat-Intro--|--Repeat-Verse--|
D----------------------------------------6--|----------------|----------------|
A-9-----------------7-7-7-7-9-7-10-9-7-6-4--|----------------|----------------|
E-7-7-7-7-7-7-7-7-7-------------------------|----------------|----------------|
   pm...................................|

                                       Riff 1
E-----------------|------------------|------------------------------------------
B-----------------|------------------|------------------------------------------
G--Repeat-Bridge--|--Repeat-Chorus-2-|------------------------------------------
D-----------------|------------------|-6---4---2-----------6---4---2------------
A-----------------|------------------|-4---2---0---4---6---4---2---0---4---6--3~
E-----------------|------------------|-------------2---4---------------2---4----

E------------------------------------------------------------------------------
B------------------------------------------------------------------------------
G------------------------------------------------------------------------------
D-6-------6----------4-------4--2-------2------------6-------6---------6-4-----
A-4-4-4-4-4-4-4-4-4--2-2-2-2-2--0-0-0-0-0--4--6--3~--4-4-4-4-4-4-4-2-4-----7-6-
E------------------------------------------2--4--------------------------------
   pm...|  pm......|  pm...|     pm....|               pm...|  pm.............|

                                       Guitar Solo (Henyo)
E--------------------------2---------|-12-------12-------12----------------11h14
B--------------------------2---------|-14^r(14)-14^r(14)-14^hold(16)~---12------
G--------------------------2---------|--------------------/-----------11--------
D----4-------4--2-------2------------|--------------------/---------------------
A-4--2-2-2-2-2--0-0-0-0-0--4--6--3~--|--------------------/---------------------
E--------------------------2--4------|--------------------/---------------------
      pm...|     pm....|
                                   T                                T 
E-p11-14p11----------11h14p11-14p11h19p14p11----------11h14p11-14p11h19p14p11---
B-----------12----12-------------------------12----12------------------------12-
G--------------11-------------------------------11------------------------------
D-------------------------------------------------------------------------------
A-------------------------------------------------------------------------------
E-------------------------------------------------------------------------------

E------/18^r(18)-18^hold-r(18)-18^r(18)-18^r(18)-16-16h18^r(18)-18-14-----------
B---------------------------------------------------------------------16--------
G-12~--------------------------------------------------------------------15-----
D---------------------------------------------------------------------------16~-
A-------------------------------------------------------------------------------
E-------------------------------------------------------------------------------

E------------------------------------------------------------------
B------------------------------------------------------------------
G------------------------------------------------------------------
D------------------------------------------------------------------
A------------------------------------------------------------------
E------------------------------------------------------------------

E------------------------------------------------------------------
B------------------------------------------------------------------
G------------------------------------------------------------------
D------------------------------------------------------------------
A------------------------------------------------------------------
E------------------------------------------------------------------

E------------------------------------------------------------------
B------------------------------------------------------------------
G------------------------------------------------------------------
D------------------------------------------------------------------
A------------------------------------------------------------------
E------------------------------------------------------------------

E------------------------------------------------------------------
B------------------------------------------------------------------
G------------------------------------------------------------------
D------------------------------------------------------------------
A------------------------------------------------------------------
E------------------------------------------------------------------

  With Fill 2,      fill 3        Chorus 2
E-------------|-----------------|---2-------------------------------------------
B-------------|-----------------|---2-------------------------------------------
G--Orchestra--|--Repeat-Chorus--|---3-------------------------------------------
D-------------|-----------------|-----------------------------------------------
A-------------|-----------------|-4----9-------9-----------------------6--------
E-------------|-----------------|-2----7-7-7-7-7-7-7-7-7-7-6-6-6-6-6---4-4-4-4-4
                                        Pm...|  pm..................|    pm....|

E-------------------------------------------------------------------------------
B-------------------------------------------------------------------------------
G-------------------------------------------------------------------------------
D---------------------------6-------6-------------------------------------------
A---------------------------4-4-4-4-4-4-4-4-4-4-2-2-2-2-2---8-------------------
E-4-4-4-4-4-4-4-4-4-4-4-4-----------------------------------6-6-6-6-6-6-6-6-6-6-
pm......................|    pm...|  pm..................|   pm................|

E--------------------------------------------------------------------------||
B--------------------------------------------------------------------------||
G--------------------------------------------------------------------------||
D---------------8-----------------------------------------------------11---||
A---------------6-6-6-6-6-6-6-6-6-6-6-8-6-9-6-8---9---11---x\---4-and-9----||
E-6-6-6-6-6-6-------------------------------------7---9----x\---2----------||
  pm.........|   pm............................|


--------------------------------------------------------------------------------

  Fill 2 for guitar 2       For Guitar 1
E-------------------------|----------------------||
B-------------------------|----------------------||
G-------------------------|----------------------|| end
D---3~--1~--1~--2~--4~----|---6-------4---2--4---||
A-------------------------|---4---6---2---0--2---||
E-------------------------|-------4--------------||

E----------||
B----------||
G----------||
D----------||
A--9---11--||
E--7---9---||

  Rhythm Guitar 1 During Guitar Solos
E-------------------------------------------------------------------------------
B-------------------------------------------------------------------------------
G-------------------------------------------------------------------------------
D-8------------------------6--------------------------4-------------------------
A-6-6-6-6-6-6-6-6-6-6-6-6--4-4-4-4-4-4-4-4-4-4-4-4-4--2-2-2-2-2-2-2-2-2-2-2-2-2-
E-------------------------------------------------------------------------------
   pm...................|    pm...................|     pm...................|
 
E-------------------------------------------------------------------------------
B-------------------------------------------------------------------------------
G-------------------------------------------------------------------------------
D-----------------------------------------4-3-4---4-3-4---4-3-4-6-4-3-----2-1-2-
A-6------------------8------------------6-------6-------6-------------6-4-------
E-4-4-4-4-4-4-4-4-4--6-6-6-6-6-6-6-6-6------------------------------------------
   pm..............|  pm..............| pm.....................................|

E-------------------------------------------------------------------------------
B-------------------------------------------------------------------------------
G-------------------------------------------------------------------------------
D---2-1-2---2-1-2-4-2-1---6-4-6---6-4-6----6-4-6-7-6-4--------------------------
A-4-------4-------------4-------4--------4-------------7---6-4-6---6-4-6---6-4-6
E--------------------------------------------------------4-------4-------4------
pm.............................................................................|

                                         Guitar 2
E--------------------------------------|------------------------------------
B--------------------------------------|------------------------------------
G--------------------------------------|---3-1-3---3-1-3---3-1-3-4-3-1------
D-------------6--4--9-----6--------6~--|-4-------4-------4-------------4-3--
A-7-6-4----7--4--2--7--7--4--7--9--4~--|------------------------------------
E-------7--5-----------5-----5--7------|------------------------------------
  pm...|                                 pm...............................|

E-------------------------------------------------------------------------------
B-------------------------------------------------------------------------------
G-------------------------------------------------------------------------------
D---6-4-6---6-4-6---6-4-6-8-6-4-------------------------------------------------
A-8-------8-------8-------------8--4-7-6-7-4-7-6-7-4-7-6-7-9-7-6-7--------------
E------------------------------------------------------------------4-7-6-7-4-6-7
pm.............................................................................|

E------------------||
B------------------||
G------------------|| end
D------------------||
A------------------||
E-4-7-6-7-9-7-6-7--||

--------------------------------------------------------------------------------

=======================
=TABLATURE EXPLANATION=
=======================

A.H. = Artifical Harmonic

pm..| = Palm mute

h = hammer on

p = pull off

/ = slide up

\ = slide down

~ = vibrato

^ = Bend

x\ = Pick Slide

--------
--------
---12--- = Tremolo pick
----/---
----/---
----/---

|     |     
|     |
|*   *| = repeat from * to *
|*   *|
|     |

LYRICS:
********************************************************************************

Yeah-yeah...

Lord above-why don't you tell me
Why I'm here in agony ?
I've been serving, I've been praying
Now I'm caught in misery

I've been praised by friar Jacob
I misused his confidence
Cheated by this work of evil-
feigning Anna's innocence


Oh what have I done?
So many way lead to the fallen one
Lucifer,fallen light...
Oh what have I done?
What is going on?

-we should bring salvation,not give in to his temptation-no!read and preach the     
holy word and no forbidden lies that hurt I remember words of “seven” set me free-sanity!-

REACH OUT FROM THE LIGHT
FAR BEYOND CONFINES
YOU HAVE READ THE MAGIC LIES
LEADING TO THE LIGHT IN YOUR MIND...

What is right and what is wrong now?
Is it a trial of paradise?
Is Anna a witch or do they stick to an error?
What's the book and the seal inside?

Am I a cleric or maybe a sinner?
Unbeliever? Renegade?
Was it the devil who led me to “seven”?
Oh redeemer is it all too latee?
 
Oh what have I done?
So many way lead to the fallen one
Lucifer,fallen light...
Oh what have I done?
What is going on?

-we should bring salvation,not give in to his temptation-no!read and preach the     
holy word and no forbidden lies that hurt I remember words of “seven” set me free-sanity!-

REACH OUT FROM THE LIGHT
FAR BEYOND CONFINES
YOU HAVE READ THE MAGIC LIES
LEADING TO THE LIGHT IN YOUR MIND...

IN YOUR MIND? YEAH-OH YEAH...

REACH OUT FROM THE LIGHT
FAR BEYOND CONFINES
YOU HAVE READ THE MAGIC LIES
LEADING TO THE LIGHT IN YOUR MIND...
Compositor não encontrado.
Colaboração e revisão:
  • Marcio Zavanella
9.424 exibições
    • ½ Tom
    • A
    • Bb
    • B
    • C
    • Db
    • D
    • Eb
    • E
    • F
    • F#
    • G
    • Ab
  • Adicionar à lista

    0 comentários

    Ver todos os comentários

    Conseguiu tocar?

    0 Tocaram 0 Ainda não

    Grave um vídeo tocando Reach Out From The Light e nos envie!

    00:00 / 00:00
    Outros vídeos desta música
    Repetir Qualidade Automático
    Outros vídeos desta música
    00:00 / 00:00
    Automático

    Cifra Club Pro

    Aproveite o Cifra Club com benefícios exclusivos e sem anúncios
    Cifra Club Pro
    Aproveite o Cifra Club com benefícios exclusivos e sem anúncios
    OK