Cifra Club

El Sinaloence

Banda El Recodo De Cruz Lizárraga

Cifra: Principal (violão e guitarra)
Selo Cifra Club: esta cifra foi revisada para atender aos critérios oficiais da nossa Equipe de Qualidade.
tom: A

1.
B|-10-10-10-10-10-8-8-7-|---7-9-10-9-7---7-8-9-9-9|
G|----------------------|-9------------9----------|
D|----------------------|-------------------------|
A|----------------------|-------------------------|
E|----------------------|-------------------------|

E|---7-----5-----4-----2-----0---------|
B|-9---9-7---7-5---5-3---3-2---2---3---|
G|-------------------------------4---4-| Dos Remates
D|-------------------------------------| en A
A|-------------------------------------|
E|-------------------------------------|

E|-----0-----0-----0-----0-----0-2-0------|
B|---2-----2-----0-----0-----0-------3-2-0|
G|-2-----2-----1-----1-----1--------------| Un Remate
D|----------------------------------------| en A
A|----------------------------------------|
E|----------------------------------------|
Outros vídeos desta música
19 exibições
    • ½ Tom
    • A
    • Bb
    • B
    • C
    • Db
    • D
    • Eb
    • E
    • F
    • F#
    • G
    • Ab
  • Adicionar à lista

Afinação da cifra

Afinador online

    0 comentários

    Ver todos os comentários

    Conseguiu tocar?

    0 Tocaram 0 Ainda não

    Grave um vídeo tocando El Sinaloence e nos envie!

    Toque também

    1. Imagem do artista Calibre 50 Siempre te voy a querer Calibre 50
    2. Imagem do artista Banda Los Recoditos Mi último deseo Banda Los Recoditos
    3. Imagem do artista Banda Carnaval Pídeme Banda Carnaval
    4. Imagem do artista Julio Preciado Un rinconcito en el cielo Julio Preciado

    Entre para o Cifra Club PRO

    Tenha acesso a benefícios exclusivos no App e no Site

    • Chega de anúncios

    • Mais recursos no app do Afinador

    • Atendimento Prioritário

    • Aumente seu limite de lista

    • Ajude a produzir mais conteúdo

    Cifra Club Pro

    Aproveite o Cifra Club com benefícios exclusivos e sem anúncios
    Cifra Club Pro
    Aproveite o Cifra Club com benefícios exclusivos e sem anúncios
    OK