Cifra Club

Amor de Índio

Beto Guedes

Cifra: Principal (violão e guitarra)
Selo Cifra Club: esta cifra foi revisada para atender aos critérios oficiais da nossa Equipe de Qualidade.
tom: G
[Intro] G5  C7M(6)/G  G9  C7M(6)/G

[Tab - Intro]

   G5          C7M(6)/G
E|-----------------------------------------|
B|-------3-------------0-------------------|
G|-0-------0---------2---2-----------------|
D|-0-0-------0-----2-------2---------------|
A|---------------3-----------3-------------|
E|-3---3-------3---------------------------|

   G9          C7M(6)/G
E|-------------0---------------------------|
B|-------0-----0---------------------------|
G|-2-------2---2---------------------------|
D|-0-0-------0-2---------------------------|
A|-------------3---------------------------|
E|-3---3-------3---------------------------|

[Primeira Parte]

   G9                    C5(9)
E|-----------------------------------------|
B|-------0---------0-----------3-----------|
G|-2-------2---2-----2-------0---0---------|
D|---0-------0---0-----0---0-------0-------|
A|-----------------------3-----------------|
E|-3---3-------3---3-----------------------|

E|-0---------------------------------------|
B|---3-1-0---------------------------------|
G|---------2-0-----------------------------|
D|-----------------------------------------|
A|-3---------------------------------------|
E|-----------------------------------------|

   G9                      C
E|-----------------------------------------|
B|-------0-----------0-----------1---------|
G|-2-------2---2-------2-------0---0-------|
D|---0-------0---0-------0---2-------2-----|
A|-------------------------3---------------|
E|-3---3-------3---3-----------------------|

   C7M
E|-----------------------------------------|
B|-0---------------------------------------|
G|-0---0-----------------------------------|
D|-2-2---2---------------------------------|
A|-3---------------------------------------|
E|-----------------------------------------|

   Bm7                                 C9(4+)
E|-------------------------------------2---|
B|-------3-----------3-----------3-----3---|
G|-----2---2-------2---2-------0---0---0---|
D|---0-------0---0-------0---2-------2-----|
A|-2-----------2-----------3-----------3---|
E|-----------------------------------------|

   G9                    C5(9)
E|-----------------------------------------|
B|-------0---------0-----------3-----------|
G|-2-------2---2-----2-------0---0---------|
D|---0-------0---0-----0---0-------0-------|
A|-----------------------3-----------------|
E|-3---3-------3---3-----------------------|

E|-0---------------------------------------|
B|---3-1-0---------------------------------|
G|---------2-0-----------------------------|
D|-----------------------------------------|
A|-3---------------------------------------|
E|-----------------------------------------|

   G9                      C
E|-----------------------------------------|
B|-------0-----------0-----------1---------|
G|-2-------2---2-------2-------0---0-------|
D|---0-------0---0-------0---2-------2-----|
A|-------------------------3---------------|
E|-3---3-------3---3-----------------------|

   C7M
E|-----------------------------------------|
B|-0---------------------------------------|
G|-0---0-----------------------------------|
D|-2-2---2---------------------------------|
A|-3---------------------------------------|
E|-----------------------------------------|

 G9                 C5(9)               G9
Tudo que move é sagrado e remove as montanhas
            C          C7M
Com todo cuidado, meu amor
    Bm7                       C9(4+)
Enquanto a chama arder, todo dia te ver passar

 G9                C5(9)                  G9
Tudo viver ao teu lado, com o arco da promessa
           C5(9)      C7M
No azul pintado prá durar

[Segunda Parte]

[Tab - Segunda Parte]

   Bm7                 C9
E|-----------------------------------------|
B|-------3-3-------3-3-------3-3-------3-3-|
G|-------2-2-------2-2-------0-0-------0-0-|
D|---0---0-0---0---0-0---2---2-2---2---2-2-|
A|-2---2-----2---2-----3---3-----3---3-----|
E|-----------------------------------------|

   Bm7                 C9
E|-----------------------------------------|
B|-------3-3-------3-3-------3-3-----------|
G|-------2-2-------2-2-------0-0-----0-----|
D|---0---0-0---0---0-0---2---2-2---2-------|
A|-2---2-----2---2-----3---3-----3-----2---|
E|-----------------------------------------|

         Em7(9)              D5
E|---------------------------------0-------|
B|-------------3-3-------3-------3-------3-|
G|-------------0-0-----0---0---2-------2---|
D|-----------4-------4-------0-------0-----|
A|-2p0-----2-------------------------------|
E|-----3-0---------0-----------------------|

         C9                    D4(7)     D7(11)
E|-0---------------------------------3---2-|
B|---3---------3-----------3-------1---1-1-|
G|-----2-----0---0-------0---0---0-------0-|
D|---------2-------2---2-------0---------0-|
A|-------3-----------3---------------------|
E|-----------------------------------------|

         Em7(9)         D5
E|----------------------------0------------|
B|--------3-3-------3-------3-------3------|
G|--------0-0-----0---0---2-------2--------|
D|------4-------4-------0-------0----------|
A|----2------------------------------------|
E|--0---------0----------------------------|

         C9                    D4(7)     D7(11)
E|-0---------------------------------3---2-|
B|---3---------3-----------3-------1---1-1-|
G|-----2-----0---0-------0---0---0-------0-|
D|---------2-------2---2-------0---------0-|
A|-------3-----------3---------------------|
E|-----------------------------------------|

Bm7                         C9
Abelha fazendo mel, vale o tempo que não voou
     Bm7                   C9
A estrela caiu do céu, o pedido que se pensou
     Em7(9)
O destino que se cumpriu
    D5(9)                  C9   D4(7)  D7(11)
De sentir seu calor e ser todo
     Em7(9)
Todo dia é de viver
      D5(9)               C9  D4(7)  D7(11)
Para ser o que for e ser tudo

[Primeira Parte]

 G9                  C5(9)               G9
Sim, todo amor é sagrado e o fruto do trabalho
             C           C7M
É mais que sagrado, meu amor
   Bm7                         C9(4+)
A massa que faz o pão, vale a luz do seu suor

 G9                     C5(9)                  G9
Lembra que o sono é sagrado e alimenta de horizontes
            C        C7M
O tempo acordado de viver

[Segunda Parte]

      Bm7                    C9
No inverno te proteger, no verão sair prá pescar
      Bm7                   C9
No outono te conhecer, primavera poder gostar
     Em7(9)
No estio me derreter
         D5(9)               C9   D4(7)  D7(11)
Prá na chuva dançar e andar junto
     Em7(9)
O destino que se cumpriu
    D5(9)                  C9   D4(7)  D7(11)
De sentir seu calor e ser todo

[Final]

[Tab - Final]

   G9                     C5(9)       C9(4+)
E|------------------------------------2----|
B|-------0----------0-----------3-----3----|
G|-2-------2----2-----2-------0---0---0----| (2x)
D|---0-------0----0-----0---0-------0-0----|
A|------------------------3-----------3----|
E|-3---3--------3---3----------------------|

G9                   C5(9)  C9(4+)
Sim, todo amor é sagrado
G9                   C5(9)  C9(4+)
Sim, todo amor é sagrado
Outros vídeos desta música
551.422 exibições
  • Simplificar cifra
    • ½ Tom
    • A
    • Bb
    • B
    • C
    • Db
    • D
    • Eb
    • E
    • F
    • F#
    • G
    • Ab
  • Adicionar à lista

Afinação da cifra

Afinador online

    0 comentários

    Ver todos os comentários

    Entre para o Cifra Club PRO

    Tenha acesso a benefícios exclusivos no App e no Site

    • Chega de anúncios

    • Mais recursos no app do Afinador

    • Atendimento Prioritário

    • Aumente seu limite de lista

    • Ajude a produzir mais conteúdo

    Capítulos
    • Início
    • Tocando a música
    • Acordes da Introdução e Primeira Parte
    • Tocando Introdução e Primeira Parte
    • Ensinando Introdução
    • Ensinando Estrofes - Primeira Parte
    • Acordes da Segunda Parte
    • Tocando Segunda Parte
    • Ensinando Segunda Parte (Guitarra)
    • Ensinando Final
    • Encerramento

    Cifra Club Pro

    Aproveite o Cifra Club com benefícios exclusivos e sem anúncios
    Cifra Club Pro
    Aproveite o Cifra Club com benefícios exclusivos e sem anúncios
    OK