Cifra Club

Quando Te Vi

Beto Guedes

Cifra: Principal
exibições 181.500
Tom: D
(intro) D F#m Fm Em A7 D


E|--------------------------------10-7--------------9-8-7------||
B|--7-8-10--7-8-10--7-8-7-8-10-8-------10-8-----8-7------------||
G|------------------------------------------7-9----------------||
D|-------------------------------------------------------------||
A|-------------------------------------------------------------||
E|-------------------------------------------------------------||

E|-------------------------------------------------------------||
B|------7-10---------7-10-8-7----------------------------------||
G|--7-9------7-9-7-9-------------------------------------------||
D|-------------------------------------------------------------||
A|-------------------------------------------------------------||
E|-------------------------------------------------------------||


D          Ebº
Nem o sol, nem o mar
      Em           Gm
Nem o brilho das estrelas
        D   F#m Fm  Em   A7        D   Ebº Em  A7
  Tudo isso não tem valor sem ter você
D            Ebº          Em      Gm
Sem você, nem o som da mais linda melodia
        D     F#m  Fm    Em    A7    D   D7
Nem os versos des-  ta canção irão valer

      G      Gm              D
Nem o perfume de todas as rosas
   B7    Em    E7        A7   A7/5+
É igual a doce presença do seu amor
     D            Ebº
O amor estava aqui
        Em     Gm
Mas eu nunca saberia
          D    F#m  Fm   Em
O que um dia se re- ve- lou
A7       D
Quando te ví
Acordes para:
    Colaboração e revisão:

    0 comentários

      mostrar mais comentários

      Conseguiu tocar?

      5tocaram1ainda não

      Grave um vídeo tocando Quando Te Vi e mande pra gente!

      00:00 / 00:00
      outros vídeos desta música
      repetirqualidadeautomática
      Outro vídeos desta música
        00:00 / 00:00
        automática
        OK