Cifra Club

Aprenda

X Rays

Blackfield

Cifra: Principal (violão e guitarra)
tom: F
Here is the notes for the guitar, play this throught the whole song
[---------------------------------------|-----------------------------------]
[---------------------------------------|-----------------------------------]
[---------------------------------------|-----------------------------------]
[-10-10-10-10--8-8-8-8------------------|-10-10-10-10--8-8-8-8--------------]
[-----------------------8-8-8-8-8-8-8-8-|-----------------------10-10-10-10-]
[---------------------------------------|-----------------------------------]


[-------------|-------------------------------------------------------------]
[-------------|-------------------------------------------------------------]
[-------------|-------------------------------------------------------------]
[-------------|--------------------------10-12-7-8-7-7-7-7-10-10-10-10------]
[-10-10-10-10-|-10-10-10-10-10-10-10-10-------------------------------------]
[-------------|-------------------------------------------------------------]


[-------------------------]
[-------------------------]
[-------------------------]
[-8-8-8-8-7-7-7-7-7-7-7-7-]
[-------------------------]
[-------------------------]

___________________________________________
VERSE 1
********
    F   Bb    F
Yesterdddddaaaaaay
   Dm              Bb            Gm
We rolled down the streets, like rats
          Bb         C
There was smoke all around me, 
       F      C      Dm
but we looked pretty happy
   Gm          C             F
To damage this town one more time.

___________________________________________
VERSE 2
********
         Dm         Bb         F
Where so fashinable glittering eyes
    Dm      Gm             F
The jury suspects its nine lives
    Bb              C
But were like blind painters
   F       C   Dm
We puke on our paper
Bb         C              F
Waiting to see what comes out.

___________________________________________
VERSE 3
********
   Dm        Bb          F
Confusing is dripping so fast
  Dm             Gm         F
A noise with the suit and a ties
Bb                C
Soon there'll ask maybe,
F      C  Dm
Me and my lady
Bb         C        F
We are the X ray of life

___________________________________________
Dm           Bb    F
Oooooh Oh Oh Oh    Oh Oh Oh
Dm           Bb    Gm
Oh Oh Oh  Oh Ahhh  Ahhh

Bb C    F C Dm    Bb C F

Dm F
Dm F  Bb Gm
___________________________________________
Bb                C
Soon there'll ask maybe,
F      C  Dm
Me and my lady
Bb         C        F
We are the X ray of life.
Colaboração e revisão:
  • luana oliveira
17 exibições
    • ½ Tom
    • A
    • Bb
    • B
    • C
    • Db
    • D
    • Eb
    • E
    • F
    • F#
    • G
    • Ab
  • Adicionar à lista

    0 comentários

    Ver todos os comentários

    Conseguiu tocar?

    0 Tocaram 0 Ainda não

    Grave um vídeo tocando X Rays e nos envie!

    00:00 / 00:00
    outros vídeos desta música
    repetir qualidade Automático
    Outros vídeos desta música
    00:00 / 00:00
    Automático

    Cifra Club Pro

    Aproveite o Cifra Club com benefícios exclusivos e sem anúncios
    Cifra Club Pro
    Aproveite o Cifra Club com benefícios exclusivos e sem anúncios
    OK