Cifra Club

Eu Sei Que Não Estou Só

Bruna Karla

Cifra: Principal (violão e guitarra)
Selo Cifra Club: esta cifra foi revisada para atender aos critérios oficiais da nossa Equipe de Qualidade.
tom: G
[Intro] G  D11/F#  Em7  D4  C9  G/B  
        Am7  D4  D  G  D11/F#  Em7 
        D4  C9  G/B  Am7  G/B

[Primeira Parte]

C9                          D
   Senhor, por mais que eu fale
                  G   
Que eu não tenho medo        
D11/F#     Em7     D
       De caminhar
C9                  D
   Sinto uma insegurança
      D4  D     G
Pois sou ser humano        
D11/F#        Em7
       Com defeitos
D4       C9
   Imperfeito
                    D      
Mas sei que os Teus olhos estão
    G     D11/F#       Em7   D4  D
Sobre mim,       a me vigiar

[Pré-Refrão]

Em7                      D/F#
    Mas quero ouvir Tua voz me dizendo
     Am7           G/B
Não temas, Sou contigo
       C9     D4  D
Só confia em mim

[Refrão]

G                   D11/F#
  Eu sei que não estou só
Em7       D     C9     D4   D
    Pois sinto Tua presença em mim
G                   D11/F#
  Eu sei que não estou só
        Am7      G/B
Posso até descansar
      C9           D
Repousar em Teus braços

G                   D11/F#
  Eu sei que não estou só
Em7       D     C9     D4   D
    Pois sinto Tua presença em mim
G                   D11/F#
  Eu sei que não estou só
        Am7      G/B
Posso até descansar
      C9           D
Repousar em Teus braços

( G  D11/F#  Em7  D4 )
( C9  G/B  Am7  G/B )

[Tab - Riff]

E|-----------10-------------7---------------|
B|-10/12-10~-----8~--7/8-7~---5~----8-------|
G|-------------------------------7~---5~----|
D|------------------------------------------|
A|------------------------------------------|
E|------------------------------------------|

[Primeira Parte]

C9                          D   D4  D
   Senhor, por mais que eu fale
                  G   
Que eu não tenho medo        
D11/F#     Em7  D
       De caminhar
C9                  D
   Sinto uma insegurança
      D4  D     G
Pois sou ser humano        
D11/F#        Em7
       Com defeitos
D4    C9
Imperfeito
                    D      
Mas sei que os Teus olhos estão
 G        D11/F#       Em7   D
Sobre mim,       a me vigiar

[Pré-Refrão]

Em7                      D4/F#
    Mas quero ouvir Tua voz me dizendo
     Am7           G/B
Não temas, Sou contigo
       C9     D4  D
Só confia em mim

[Refrão]

G                   D11/F#
  Eu sei que não estou só
Em7       D     C9     D4   D
    Pois sinto Tua presença em mim
G                   D11/F#
  Eu sei que não estou só
        Am7      G/B
Posso até descansar
      C9           D
Repousar em Teus braços

G                   D11/F#
  Eu sei que não estou só
Em7       D     C9     D4   D
    Pois sinto Tua presença em mim
G                   D11/F#
  Eu sei que não estou só
        Am7      G/B
Posso até descansar
      C9           D
Repousar em Teus braços

[Solo] G  D11/F#  Am7
       G/B  C9  D4  D

[Tab - Solo]

E|------------------------------------------|
B|----10-10h12-12-10-10h12-12-10-10h12-10-10|
G|-12---------------------------------------|
D|------------------------------------------|
A|------------------------------------------|
E|------------------------------------------|

E|------------------------------------------|
B|----------12-13-13~-----12-13-15b17-------|
G|-11-12-14------------12-------------------|
D|------------------------------------------|
A|------------------------------------------|
E|------------------------------------------|

E|------------------------------------------|
B|-15-13-12---------------------------------|
G|----------14-12-------12-12~--------------|
D|----------------12h14---------------------|
A|------------------------------------------|
E|------------------------------------------|

[Refrão]

G                   D11/F#
  Eu sei que não estou só
Em7       D     C9     D4   D   G
    Pois sinto Tua presença em mim
                  D11/F#
Eu sei que não estou só
        Am7      G/B
Posso até descansar
      C9           D
Repousar em Teus braços
        Am7      G/B
Posso até descansar
      F9             G
Repousar em Teus braços
Outros vídeos desta música
    613.309 exibições
    • Simplificar cifra
      • ½ Tom
      • A
      • Bb
      • B
      • C
      • Db
      • D
      • Eb
      • E
      • F
      • F#
      • G
      • Ab
    • Adicionar à lista

    Afinação da cifra

    Afinador online

      0 comentários

      Ver todos os comentários

      Entre para o Cifra Club PRO

      Tenha acesso a benefícios exclusivos no App e no Site

      • Chega de anúncios

      • Mais recursos no app do Afinador

      • Atendimento Prioritário

      • Aumente seu limite de lista

      • Ajude a produzir mais conteúdo

      Cifra Club Pro

      Aproveite o Cifra Club com benefícios exclusivos e sem anúncios
      Cifra Club Pro
      Aproveite o Cifra Club com benefícios exclusivos e sem anúncios
      OK