Cifra Club

Lets Go Crazy

Bruno Mars

Cifra: Principal (violão e guitarra)
Selo Cifra Club: esta cifra foi revisada para atender aos critérios oficiais da nossa Equipe de Qualidade.
tom: G#m
[Intro 1]
E|--------------------|--------------------|--------------------|--------------------|
B|--------------------|--------------------|--------------------|--------------------|
G|--------------------|--------------------|--------------------|--------------------|
D|----------------2---|----------------2---|----------------2---|----------------2---|
A|--------1-2-3-4---4-|------------1-3---4-|--------1-2-3-4---4-|------------1-3---4-|
E|-2-2----------------|-2-2----------------|-2-2----------------|-2-2----------------|


[Intro 2]
F#  B/F#  F#7sus  B/F#   x4

[Verse 1]
F#           B/F#
If you don't like
    F#                  B/F#
The world you're living in
F#           B/F#
Take a look around you
   F#            B/F#
At least you got friends
  F#            B/F#
I called my old lady
      F#        B/F#
For a friendly word
    F#                 B/F#
She just picked up the phone
N.C.
Dropped it on the floor
N.C.
"Aah, aah!" is all I heard

[Pre-Chorus]
C#5
I'm not gonna let de-elevator
D#5    B5 C#5   N.C.
bring us down (oh no, let's go)

[Chorus]
F#       B/F#  F#7sus  B/F#
Let's go crazy
F#        B/F#  F#7sus  B/F#
let's get nuts
F#                 B/F#    F#7sus  B/F#
Let's look for the purple banana 'til they
F#     B/F#    F#7sus  B/F#
put us in the truck (let's go)

[Interlude 1]
F#  B/F#  F#7sus  B/F#   x4

[Verse 2]
F#    B/F#
All excited
    F#         B/F#
but don't know why
F#          B/F#
Maybe it's 'cause
      F#        B/F#
we're all gonna die
    F#        B/F#
And when we do (when we do)
F#            B/F#
What's it all for? (what's it all for)
F#          B/F#
Better live now
  F#            B/F#
before the grim reaper comes
F#               B/F#
knocking on your door tell me

[Pre-Chorus]
C#5
I'm not gonna let de-elevator
D#5    B5 C#5   N.C.
bring us down (oh no, let's go)

[Chorus]
F#       B/F#  F#7sus  B/F#
Let's go crazy
F#        B/F#  F#7sus  B/F#
let's get nuts
F#                 B/F#    F#7sus  B/F#
Let's look for the purple banana 'til they
F#     B/F#    F#7sus  B/F#
put us in the truck (let's go)

[Interlude 2]
F#5           E5
     Come on baby
               D#5
let's get nuts!
E5

[Solo]
E|-------14-------14-------|-14-------14-------14----|----14-------14-------14-|-------14-------14-14----|
B|-14-17----14-17-14-14-17-|----14-17-14-14-17----14-|-17-14-14-17----14-17-14-|-14-17----14-17-14----14-|
G|-------------------------|-------------------------|-------------------------|-------------------------|
D|-------------------------|-------------------------|-------------------------|-------------------------|
A|-------------------------|-------------------------|-------------------------|-------------------------|
E|-------------------------|-------------------------|-------------------------|-------------------------|

E|--------------------------|--------------------------|-------------------------|--------------------------|
B|-17b19--------------------|-17b19---------17b19-r-14-|-17-b19-r-14-17-b19-r-14-|-17-b19-r-14-17b19---r-14-|
G|---------------16b17-r-14-|--------------------------|-------------------------|--------------------------|
D|--------------------------|--------------------------|-------------------------|--------------------------|
A|--------------------------|--------------------------|-------------------------|--------------------------|
E|--------------------------|--------------------------|-------------------------|--------------------------|

E|---------17b19--------17b19---|-------------17b19---|-----17b19-------17b19---|-----17b19-------r-14-|
B|-17b19-r----------------------|---------------------|-------------------------|----------------------|
G|------------------------------|---------------------|-------------------------|----------------------|
D|------------------------------|---------------------|-------------------------|----------------------|
A|------------------------------|---------------------|-------------------------|----------------------|
E|------------------------------|---------------------|-------------------------|----------------------|

E|-17-14-----14---14---|-17-14-----17-14-----|-17-14-----17-14-----|-17-16-14--------------------------|
B|---------------------|---------------------|---------------------|----------17-16-14-----------------|
G|---------------------|---------------------|---------------------|-------------------16-14-----------|
D|---------------------|---------------------|---------------------|-------------------------16--------|
A|---------------------|---------------------|---------------------|----------------------------14\----|
E|---------------------|---------------------|---------------------|-----------------------------------|

[Pre-Chorus]
C#5
I'm not gonna let de-elevator
D#5    B5 C#5   N.C.
bring us down (oh no, let's go)

[Interlude 3]
F#   x8

[Outro]
F#  B/F#  F#7sus  B/F#   x4



************************************

| r  Release
| b  Bend
| \  Slide down
 
00:00 / 00:00
Outros vídeos desta música
Repetir
Outros vídeos desta música
51 exibições
    • ½ Tom
    • Am
    • Bbm
    • Bm
    • Cm
    • C#m
    • Dm
    • Ebm
    • Em
    • Fm
    • F#m
    • Gm
    • G#m
  • Adicionar à lista

Afinação da cifra

Afinador online

    0 comentários

    Ver todos os comentários

    Entre para o Cifra Club PRO

    Tenha acesso a benefícios exclusivos no App e no Site

    • Chega de anúncios

    • Mais recursos no app do Afinador

    • Atendimento Prioritário

    • Aumente seu limite de lista

    • Ajude a produzir mais conteúdo

    00:00 / 00:00

    Cifra Club Pro

    Aproveite o Cifra Club com benefícios exclusivos e sem anúncios
    Cifra Club Pro
    Aproveite o Cifra Club com benefícios exclusivos e sem anúncios
    OK