Cifra Club

Skate (feat. Silk Sonic & Anderson .Paak)

Bruno Mars

Cifra: Principal (violão e guitarra)
Selo Cifra Club: esta cifra foi revisada para atender aos critérios oficiais da nossa Equipe de Qualidade.
tom: Bb
[Intro] Am7  C7(4/9)
             
Am7  C7(4/9)
             Oh my, oh my

[Tab - Passagem]

E|-----------------------------------------------------|
B|-10-8-10---8-10-8-------------8----------------------|
G|-10-9-10---9-10-9---10-9------9----------------------|
D|-------------------------10--10----------------------|
A|-----------------------------------------------------|
E|-----------------------------------------------------|

[Primeira Parte]

      Gm7(9)          C
In a room    full of dimes
           Am7            D
You would be   a hundred dollars
          Gm7(9)         C
If bein' fine    was a crime
                             Am7
Girl, they'd lock your lil' fine ass 
         D
Up in a tower

             Gm7(9)           C
The way you move    like you do
               Am7           D
It's like you do   it for a livin'
            Am7  
Do a lil' spin 
 Bb7M           D7(4/9)
Do    it again,         shit

Look like you playin' for the win
         
Oh, baby

[Pré-Refrão]

[Tab - Frase 1]

E|------------------------------------------|
B|-9/10----x--10--x-------------------------|
G|-9/10----x--10--x-------------------------| (2x)
D|------------------------------------------|
A|------------------------------------------|
E|------------------------------------------|
   ↓       ↓   ↑  ↓

[Tab - Frase 2]

E|-------------10--10-----------------------|
B|-9/10----10--10--10-----------------------|
G|-9/10----10--10--10-----------------------| (2x)
D|------------------------------------------|
A|------------------------------------------|
E|------------------------------------------|
   ↓        ↓   ↑   ↓

[Tab - Frase 3]

E|------------------------------------------|
B|-9/10----x--10--x-------------------------|
G|-9/10----x--10--x-------------------------| (2x)
D|------------------------------------------|
A|------------------------------------------|
E|------------------------------------------|
   ↓       ↓   ↑  ↓

Bb7M  Am7  Gm7                (frase 1)
               I'm tryna roll
               Gm7  Am7  Bb7M
I'm tryna ride
            (frase 2)                    
I'm tryna float
                Bb7M  Am7  Gm7
I'm tryna glide
         (frase 3)         
No, no, don’t be shy
 Eb7(4/9)  Ab7M           
Just      take  my hand 
     C7(4/9)  D7(4/9)  F7(4/9)
And hold      on      tight

[Refrão]

  Gm7(9)        C   Am7         
Skate    to me baby   
        D
(Skate)
  Gm7(9)             C       
Slide    your way on over
   Am7             D
(Slide your way on over) 
  Gm7(9)        C   Am7 
Skate    to me baby   
        D
(Skate)
   Am7   Bb7M          D7(4/9)   
I wanna get   to know ya 

(I wanna get to know ya)

Come on

[Interlúdio] 

Am7  C7(4/9)
             Oh my, oh my

[Tab - Passagem]

E|-----------------------------------------------------|
B|-10-8-10---8-10-8-------------8----------------------|
G|-10-9-10---9-10-9---10-9------9----------------------|
D|-------------------------10--10----------------------|
A|-----------------------------------------------------|
E|-----------------------------------------------------|

[Segunda Parte]

          Gm7(9)         C
Got your hair    in the wind 
           Am7       D
And your skin glistenin'
        Gm7(9)                C
I can smell    your sweet perfume
           Am7                D
You smell better than a barbecue

     Gm7(9)   C  
Oh, super___star 
     Am7     D   Am7
Is what  you are
          Bb7M       D7(4/9)
I'm your biggest fan

If you're lookin' for a man

Sugar, here I am

[Pré-Refrão]

[Tab - Frase 1]

E|------------------------------------------|
B|-9/10----x--10--x-------------------------|
G|-9/10----x--10--x-------------------------| (2x)
D|------------------------------------------|
A|------------------------------------------|
E|------------------------------------------|
   ↓       ↓   ↑  ↓

[Tab - Frase 2]

E|-------------10--10-----------------------|
B|-9/10----10--10--10-----------------------|
G|-9/10----10--10--10-----------------------| (2x)
D|------------------------------------------|
A|------------------------------------------|
E|------------------------------------------|
   ↓        ↓   ↑   ↓

[Tab - Frase 3]

E|------------------------------------------|
B|-9/10----x--10--x-------------------------|
G|-9/10----x--10--x-------------------------| (2x)
D|------------------------------------------|
A|------------------------------------------|
E|------------------------------------------|
   ↓       ↓   ↑  ↓

Bb7M  Am7  Gm7                (frase 1)
               I'm tryna roll
               Gm7  Am7  Bb7M
I'm tryna ride
            (frase 2)                    
I'm tryna float
                Bb7M  Am7  Gm7
I'm tryna glide
         (frase 3)         
No, no, don’t be shy
 Eb7(4/9)  Ab7M           
Just      take  my hand 
     C7(4/9)  D7(4/9)  F7(4/9)
And hold      on      tight

[Refrão]

  Gm7(9)        C   Am7
Skate    to me baby 
        D
(Skate)
  Gm7(9)             C    
Slide    your way on over 
   Am7             D
(Slide your way on over)
  Gm7(9)        C   Am7  
Skate    to me baby 
        D
(Skate)
   Am7   Bb7M          D7(4/9)   
I wanna get   to know ya 

(I wanna get to know ya)

[Ponte]

Eb7(4/9)
I        never fall but tonight 
                        Ab7M
You got me fallin' for you

And only you, you
     Db7(4/9)
I'm reaching  out in hopes
                       Gb7M
That you reach for me too
              C7(4/9)
Girl, let’s groove

[Interlúdio] 

Am7  C7(4/9)
             Girl, you got me singing 

( Am7  C7(4/9) )

[Tab - Passagem]

E|-----------------------------------------------------|
B|-10-8-10---8-10-8-------------8----------------------|
G|-10-9-10---9-10-9---10-9------9----------------------|
D|-------------------------10--10----------------------|
A|-----------------------------------------------------|
E|-----------------------------------------------------|

[Refrão Final]

  Gm7(9)        C   Am7
Skate    to me baby 
        D
(Skate)
           Gm7(9)             C
Come on, slide    your way on over
   Am7             D
(Slide your way on over)
  Gm7(9)         C   Am7
Skate    to me, baby 
        D
(Skate)
   Am7   Bb7M          D7(4/9)
I wanna get   to know you,     girl

(I wanna get to know ya)

  Gm7(9)     C      Am7 
Skate    to me, my baby 
        D
(Skate)
       Gm7(9)             C
Just slide    your way on over 
   Am7             D
(Slide your way on over)
  Gm7(9)     C      Am7  
Skate    to me, my baby
        D
(Skate)
   Am7   Bb7M          D7(4/9)   
I wanna get   to know ya 

(I wanna get to know ya)
00:00 / 00:00
Outros vídeos desta música
Repetir
Outros vídeos desta música
17.722 exibições
    • ½ Tom
    • A
    • Bb
    • B
    • C
    • Db
    • D
    • Eb
    • E
    • F
    • F#
    • G
    • Ab
  • Adicionar à lista

Afinação da cifra

Afinador online

    0 comentários

    Ver todos os comentários

    Conseguiu tocar?

    5 Tocaram 0 Ainda não

    Grave um vídeo tocando Skate (feat. Silk Sonic & Anderson .Paak) e nos envie!

    Toque também

    1. Imagem do artista Beyoncé Halo Beyoncé
    2. Imagem do artista Justin Bieber Love Yourself Justin Bieber
    3. Imagem do artista Rihanna Diamonds Rihanna
    4. Imagem do artista Justin Timberlake Mirrors Justin Timberlake

    Entre para o Cifra Club PRO

    Tenha acesso a benefícios exclusivos no App e no Site

    • Chega de anúncios

    • Mais recursos no app do Afinador

    • Atendimento Prioritário

    • Aumente seu limite de lista

    • Ajude a produzir mais conteúdo

    00:00 / 00:00
    Capítulos
    • Apresentação
    • Configurando o Timbre
    • Tocando Introdução
    • Ensinando Introdução
    • Ensinando Passagem Introdução
    • Tocando Primeira Parte
    • Ensinando Primeira Parte
    • Tocando Pré-Refrão
    • Ensinando Pré-Refrão
    • Tocando Ponte
    • Ensinando Ponte
    • Encerramento

    Cifra Club Pro

    Aproveite o Cifra Club com benefícios exclusivos e sem anúncios
    Cifra Club Pro
    Aproveite o Cifra Club com benefícios exclusivos e sem anúncios
    OK