Cifra Club

Living Zoo

Built To Spill

Cifra: Principal (violão e guitarra)
Selo Cifra Club: esta cifra foi revisada para atender aos critérios oficiais da nossa Equipe de Qualidade.
tom: G
E|E|---------------------------------------------------------------------------||
                             LIVING ZOO – Built To Spill
E|E|---------------------------------------------------------------------------||
Tabbed by: Benson       

Tuning: Standard

Intro Part 1: I’m not sure about this part, sounds ok but I don’t think it’s totally correct, 
any improvements welcome!!

E|------------------------------------------------------------------------|
B|-12-12-12-12--7-7-7-7--10-10-10-10--8-8-10-10---------------------------|
G|------------------------------------------------------------------------|
D|-12-12-12-12--4-4-4-4---7--7--7--7--5-5--7--7---------------------------|
A|------------------------------------------------------------------------|
E|------------------------------------------------------------------------|


Intro Part 2:

E|-3---2-0--0-------------------|
B|-0---3----1-0-----------------|
G|-0---2----2-----0--0--0-------|
D|-0---0----2----4--4--4--------| Play 4 times with slight variations
A|-2--------0---3--3--3---------|
E|-3----------------------------|

Verse – each Amin chord alternates between Am and Asus2, so just alternate between fretting the first fret on 
the B string and the open B string

G   D   Am        
We know where we wanna go
G   D        Am
But we can’t tell
G   D        Am  
Alone how to navigate
G   D          Am
Our way through hell

Bridge

D     Am
Ahhhh ahhhh
C      G
That’s alright
D     Am
Ahhhh ahhhh
C     G 
Doing fine

Middle Section

Am   Em 
     Being a human
Am   Em 
     Being an animal too
Am   Em    
     Being all wrong and
Am   Em 
     Being all me an you
Outros vídeos desta música
    5 exibições
      • ½ Tom
      • A
      • Bb
      • B
      • C
      • Db
      • D
      • Eb
      • E
      • F
      • F#
      • G
      • Ab
    • Adicionar à lista

    Afinação da cifra

    Afinador online

      0 comentários

      Ver todos os comentários

      Conseguiu tocar?

      0Tocaram0Ainda não

      Grave um vídeo tocando Living Zoo e nos envie!

      Toque também

      1. Imagem do artista PavementHarness Your Hopes Pavement
      2. Imagem do artista Modest MouseFloat On Modest Mouse
      3. Imagem do artista The WrensHappy The Wrens
      4. Imagem do artista The Halo BendersSnowfall The Halo Benders

      Entre para o Cifra Club PRO

      Tenha acesso a benefícios exclusivos no App e no Site

      • Chega de anúncios

      • Badges exclusivas

      • Mais recursos no app do Afinador

      • Atendimento Prioritário

      • Aumente seu limite de lista

      • Ajude a produzir mais conteúdo

      Cifra Club Pro

      Aproveite o Cifra Club com benefícios exclusivos e sem anúncios
      Cifra Club Pro
      Aproveite o Cifra Club com benefícios exclusivos e sem anúncios
      Ops (: Contenido disponible sólo en portugués.
      OK