Cifra Club

Anh 122 March In D Major

Carl Philipp Emanuel Bach

Cifra: Principal (violão e guitarra)
Selo Cifra Club: esta cifra foi revisada para atender aos critérios oficiais da nossa Equipe de Qualidade.
tom: E
E|-------------------------------|-------------------------------|
B|-------------------------------|-3-----------------------0---2-|
G|-------------------------2-----|---------2---------------------|
D|-------------------------------|-0-------5-------4-------2-----|
A|-------------------------------|-------------------------------|
E|-------------------------------|-0============================-|
   |   |   |   |   |   |   |   |   |   |   |   |   |   |   |   |
R                          i       m       m       i       m   m
                                   i       i               p
                                   p

L                          1       2       1       3       1   2
                                           4


[1]

E|-------------------------------|-----0---2---3---5---3---2---0-|
B|-3-----------------------0---2-|-3-----------------------------|
G|---------2===============------|-------------------------------|
D|-0-------5-------4-------2-----|-4-------0---------------------|
A|-------------------------------|-----------------4-------0-----|
E|-0============================-|-0============================-|
   |   |   |   |   |   |   |   |   |   |   |   |   |   |   |   |

R  m       m       i       m   m   m   a   m   i   m   i   m   i
   p       i               p       i       p       p       p
                                   p
L  2       1       3       1   2   2       1   1   4   1   1
           4                       3               2


[5]

E|-2-----------------------2---0-|-2-----------------------------|
B|---------3================-----|---------3==============-0-----|
G|-------------------------------|-----------------------------2-|
D|---------0-------0-------------|---------0-------0-------------|
A|-------------4-----------------|-------------4-----------------|
E|-0-----------------------0-----|-0-----------------------0-----|
   |   |   |   |   |   |   |   |   |   |   |   |   |   |   |   |

R  m       i   p   p       m   i   m       i   p   p       m   i
   p       p               p       p       p               p

L  1       2   3           1       1       2   3               2


[7]

E|---------0------(0)------------|-------------------------------|
B|-0-------------------3---2---0-|-------------3---2-p-0---------|
G|-----1-------------------------|-2---------------------------2-|
D|---------0-------0-------------|---------4-------0-------2-----|
A|-------------4-----------------|-4-----------------------------|
E|-0-----------------------0-----|-------------------------------|
   |   |   |   |   |   |   |   |   |   |   |   |   |   |   |   |
R  m   i   a   p  (a)  m   i   m   i       i   a   m       i   m
   p       p       p       p       p               p

L      1       4       2   1       1       4   2   1       1   2
                                   3


[9]                                Ending1

E|-----------------------------0-|-5====================--------| |
B|-----------------2-------2-----|------------------------------| |
G|-2-----------2-------2---------|-----------------------------*| |
D|---------2---------------------|---------2-------------------*| |
A|-0-------0---0---0---0---0---0-|-0---------------0------------| |
E|-------------------------------|------------------------------| |
   |   |   |   |   |   |   |   |   |   |   |   |   |   |   |   |

R  m       i   m   a   i   m   a   a       p       p
   p       p   p   p   p   p   p   p

L  2       1   2   3   2   3       4       1

[11]Ending 2
   I....................
E|-5====================---------|
B|-------------------------------|
G|-----------------2-------------|
D|---------2---------------------|
A|-0-----------------------------|
E|-------------------------------|
   |   |   |   |   |   |   |   |
R  a       p       p
   p

L  4       1       1

Part B
[12]
                                                           II.....
E|-------------------------0-----|-5-------0==============-2---4-|
B|-------------------------------|-------------------------------|
G|-------------------------------|-------------------------------|
D|-------------------------------|---------0---------------------|
A|-------------------------------|-0---------------4-------2-----|
E|-------------------------------|-------------------------------|
   |   |   |   |   |   |   |   |   |   |   |   |   |   |   |   |
R                          a       a       m       p       m   m
                                   p       p               p
L                                  4               3       1   3
                                                           1

[14]
                           II......        II.....
E|-5-------0==============-2---4-|-5-------3---2---0---2---3---0-|
B|-------------------------------|-------------------------------|
G|-------------------------------|-------------------------------|
D|---------0---------------------|-------------------------------|
A|-0---------------4-------2-----|-0-------2-------4-------0-----|
E|-------------------------------|-------------------------------|
   |   |   |   |   |   |   |   |   |   |   |   |   |   |   |   |
R  a       m       p       m   m   a       i   m   i   m   i   m
   p       p               p       p       p       p       p

L  4               3       1   3   4       2   1   3   1   2
                           1               1


[16]
                                                           I......
E|-2-----------------------------|---------0---2---3-------------|
B|---------3------(3)------0---1-|-0---3---------------0---2---3-|
G|---------------------2---------|-0-----------------------1-----|
D|---------0---2---4-------0-----|-------------------------------|
A|-------------------------------|-------------------------------|
E|-0-----------------------------|-------------------------------|
   |   |   |   |   |   |   |   |   |   |   |   |   |   |   |   |

R  i       m   p   m   i   m   i   m   m   a   m   m   i   i   i
           p       p       p       i                       p

L  1       2   1  (2)  1       1       4       2   3       2   3
                   3                                       1

[18]

  II......................III..........
E|---------2---3---5-------------|-----3---7---5---3---2---0-----|
B|-2---5---------------2---3--5--|-3---------------------------3-|
G|-2-----------------------3-----|-4-------0---------------0-----|
D|-------------------------------|-----------------2-------------|
A|-------------------------------|-------------------------------|
E|-------------------------------|-------------------------------|
   |   |   |   |   |   |   |   |   |   |   |   |   |   |   |   |
R  i   i   m   i   m   i   i   i   i   m   m   i   m   i   m   i
   p                       p       p       p       p       p

L  1   4   1   2   4   1   1   3   1   1   4   2   3   2       3
   1                       1       2               1

[20]
   II..........
E|---------5---------------------|-------------------------0-----|
B|-2-----------------------3-----|-0-------------------0-------0-|
G|-2-------2---0---------------2-|-----2---0-------0-------------|
D|-----------------4---2---4---0-|-------------4-----------------|
A|-----0-------------------------|-------------------------------|
E|-------------------------------|-5-----------------------5-----|
   |   |   |   |   |   |   |   |   |   |   |   |   |   |   |   |

R  m       a   p   p   p   a   m   a   m   m   p   i   m   a   m
   i   p   p               p   i   p                       p


L  1       4       3   1   2   1   4   1       3           4
   1       1               3

[22]
   II...............       V......
E|---------------------0---------|-5---------------2---0---------|
B|-2-----------2---3-------7---8-|---------3---------------3---2-|
G|-----2---4---------------------|-------------------------------|
D|-------------------------------|-------------------------------|
A|-0-----------------------------|---------2---------------0-----|
E|-------------------------5-----|-4---------------5-------------|
   |   |   |   |   |   |   |   |   |   |   |   |   |   |   |   |
R  m   i   i   m   m   a   m   m   a       m       a   a   m   i
   p                       p       p       p       p       p

L  1   1   3   1   2       3   4   4       3       1       2   1
                           1       2       1       4


[24]

E|-----------------2-------2---5-|-10===================--------| |
B|-3-----------3-------3---------|------------------------------| |
G|---------2---------------------|-----------------------------*| |
D|-0-----------------------------|---------0-------------------*| |
A|-------------------------------|-----0------------------------| |
E|---------0---0---0---0---0---0-|-0----------------------------| |
   |   |   |   |   |   |   |   |   |   |   |   |   |   |   |   |
Outros vídeos desta música
    4 exibições
      • ½ Tom
      • A
      • Bb
      • B
      • C
      • Db
      • D
      • Eb
      • E
      • F
      • F#
      • G
      • Ab
    • Adicionar à lista

    Afinação da cifra

    Afinador online

      0 comentários

      Ver todos os comentários

      Entre para o Cifra Club PRO

      Tenha acesso a benefícios exclusivos no App e no Site

      • Chega de anúncios

      • Badges exclusivas

      • Mais recursos no app do Afinador

      • Atendimento Prioritário

      • Aumente seu limite de lista

      • Ajude a produzir mais conteúdo

      Cifra Club Pro

      Aproveite o Cifra Club com benefícios exclusivos e sem anúncios
      Cifra Club Pro
      Aproveite o Cifra Club com benefícios exclusivos e sem anúncios
      OK