Cifra Club

K032-Sonata In Dm

Domenico Scarlatti

Cifra: Principal (violão e guitarra)
Selo Cifra Club: esta cifra foi revisada para atender aos critérios oficiais da nossa Equipe de Qualidade.
tom: E
                                            BII      tr                tr
E|--0-2-3-2-0-|-8-----|-2-3-5-3-2-|-7-----|-----2-----|-0-----|---------|----| |
B|--0---------|-5-----|-4---------|-5-----|-4-5---5-4-|---0---|---------|----| |
G|------------|---8-9-|-----------|---3-4-|-2---------|-0---2-|-0-2-0---|---*| |
D|--2---------|-7-----|-----------|-------|-4---------|-------|-------4-|-2--| |
A|------------|-0-----|-0---------|-------|-----------|-----0-|-2-----2-|---*| |
E|--0---------|-------|-----------|-3-----|-2---------|---3---|---------|-0--| |


  Part II

e||------------|---4-5-|-----------|---2-3-|-----------|-2-3-5-3-2-|
B||--0-1-3-1-0-|-1-----|---0-1-0---|-0-----|-----0-----|-1---------|
G||*-----------|-------|-2-------2-|-0-----|-0-2---2-0-|-----------|
D||--2---------|-2-----|-0-------0-|---0---|-----------|-------2-1-|
A||*-----------|-0-----|-----------|-------|-----------|-0-------2-|
E||--0---------|-----3-|-2---------|-----3-|-3---------|-----------|


    tr                                      tr
E|-----------|-----------|-----------|-------|---0-2-0---|-0-----|
B|-----------|---0-------|-0-1-3-1-0-|-1-----|-4-------4-|-------|
G|-----------|-3---------|-----------|-------|-----------|-------|
D|-2-4-5-4-2-|-----------|-2---------|---1-2-|-----------|---1-2-|
A|-3---------|---2-0-----|-----------|-0-----|-2---------|-3-2-3-|
E|---------3-|-2-----3-2-|-3---------|-------|-----------|-------|
Outros vídeos desta música
    4 exibições
      • ½ Tom
      • A
      • Bb
      • B
      • C
      • Db
      • D
      • Eb
      • E
      • F
      • F#
      • G
      • Ab
    • Adicionar à lista

    Afinação da cifra

    Afinador online

      0 comentários

      Ver todos os comentários

      Entre para o Cifra Club PRO

      Tenha acesso a benefícios exclusivos no App e no Site

      • Chega de anúncios

      • Badges exclusivas

      • Mais recursos no app do Afinador

      • Atendimento Prioritário

      • Aumente seu limite de lista

      • Ajude a produzir mais conteúdo

      Cifra Club Pro

      Aproveite o Cifra Club com benefícios exclusivos e sem anúncios
      Cifra Club Pro
      Aproveite o Cifra Club com benefícios exclusivos e sem anúncios
      Ops (: Contenido disponible sólo en portugués.
      OK