Cifra Club

Sonata In A Major - K322

Domenico Scarlatti

Cifra: Principal (violão e guitarra)
Selo Cifra Club: esta cifra foi revisada para atender aos critérios oficiais da nossa Equipe de Qualidade.
tom: C#m
  |       |       |       |        |       |       |       |        
E|0---------------0---------------| 0-----------------------5---0---|
B|--------------------------------|--------------------------------|
G|--------------------------------|--------------------------------|
D|--------------------------------|--------------------------------|
A|--------------------------------| 0---------------4---------------|
E|--------------------------------|--------------------------------|

  |       |       |       |        |       |       |       |        
E|4---2---0-----------------------|--------0---------------5-------|
B|------------3---2-------0-------| 2---3-----------------------2---|
G|--------------------------------|--------------------------------|
D|0---------------2---------------|--------------------------------|
A|--------------------------------| 0---------------0---------------|
E|--------------------------------|--------------------------------|

  |       |       |       |        |       |       |       |        
E|0-------------------------------|----------------------------0---|
B|----3---2---0-------------------|------------------------2-------|
G|----------------2-------1-------| 2-------------------------------|
D|0---------------2---------------|--------2-----------------------|
A|--------------------------------| 0---------------0---------------|
E|--------------------------------|--------------------------------|

  |       |       |       |        |       |       |       |        
E|--------------------------------|----------------------------0---|
B|3-------0---------------3-------| 3------3h5p3-2----------2-------|
G|--------------------------------|--------------------------------|
D|----------------2---------------|--------------------------------|
A|0-------------------------------| 0------------------0------------|
E|----------------4---------------|--------------------------------|

  |       |       |       |        |       |       |       |        
E|--------7-----------------------|------------------------5-------|
B|3-----------------------3-------| 3----3h5p3---2--------------2---|
G|--------------------------------|--------------------------------|
D|--------------------------------|--------------------------------|
A|0-------------------------------| 0------------------4------------|
E|----------------4---------------|--------------------------------|

  |       |       |       |        |       |       |       |        
E|--------2-----------------------|------------------------0-------|
B|0-------------------------------|----------------------------0---|
G|------------------------2-------| 2h4p2----1----------------------|
D|0---------------1---------------|----------------2---------------|
A|--------------------------------|--------------------------------|
E|--------------------------------| 0-------------------------------|

  |       |       |       |        |       |       |       |        
E|--------2-----------------------|------------------------0-------|
B|0-------------------------------|----------------------------0---|
G|------------------------2-------| 2h4p2-----1---------------------|
D|1---------------1---------------|----------------2---------------|
A|--------------------------------|--------------------------------|
E|--------------------------------| 0-------------------------------|

  |       |       |       |        |       |       |       |        
E|------------------------0-------|------------------------0-------|
B|0-------0-------0---------------|--------------------------------|
G|----------------------------1---| 1-------2-------------------2---|
D|0---------------0---------------|--------------------------------|
A|--------------------------------| 4---------------4---------------|
E|--------------------------------|--------------------------------|

  |       |       |       |        |       |       |       |        
E|------------------------0-------|------------------------5-------|
B|--------0-------------------0---| 0-------2-------------------2---|
G|--------------------------------|--------------------------------|
D|2-------------------------------|--------------------------------|
A|--------------------------------| 0---------------0---------------|
E|4---------------4---------------|--------------------------------|

  |       |       |       |        |       |       |       |        
E|--------7---------------7-------| 0-------7---0-----------7-------|
B|4-----------4---4-----------4---|----------------7-----------7---|
G|--------------------------------|--------------------------------|
D|--------------------------------| 4-------------------------------|
A|0-------------------------------|----------------6---------------|
E|--------------------------------|--------------------------------|

  |       |       |       |        |       |       |       |        
E|4-------5---7---5---4---2---0---|------------------------7-------|
B|--------------------------------| 4-------0-------------------8---|
G|--------------------------------|--------------------------------|
D|2-------------------------------|--------------------------------|
A|----------------0---------------| 2-------------------------------|
E|--------------------------------|--------------------------------|

  |       |       |       |        |       |       |       |        
E|3-------3-------3-------3-------| 3---2---0---------------7---0---|
B|5---------------3---------------| 1---------------1---------------|
G|--------------------------------|--------------------------------|
D|--------------------------------|--------------------------------|
A|--------------------------------|--------------------------------|
E|--------------------------------|--------------------------------|

  |       |       |       |        |       |       |       |        
E|0-------0-------0-------0-------| 0---------------8---------------|
B|--------------------------------|----3---1-----------------------|
G|0-------------------------------|--------------------------------|
D|--------------------------------|----------------7---------------|
A|--------------------------------| 0-------------------------------|
E|----------------3---------------|--------------------------------|

  |       |       |       |        |       |       |       |        
E|--------7---5---3---2---0-------| 0-------------------------------|
B|----------------------------4---|------------------------0-------|
G|--------------------------------|----------------------------0---|
D|--------------------------------| 2-------------------------------|
A|----------------2---------------|--------------------------------|
E|7-------------------------------|----------------0---------------|

  |       |       |       |        |       |       |       |        
E|--------------------------------|------------------------0-------|
B|--------------------------------|----------------------------1---|
G|0-------0-------0-------0-------| 1-------2-----------------------|
D|2---------------0---------------|--------------------------------|
A|--------------------------------| 3---------------3---------------|
E|--------------------------------|--------------------------------|

  |       |       |       |        |       |       |       |        
E|--------------------------------|------------------------7-------|
B|--------------------------------|--------0-------------------8---|
G|2-------2-------2-------2-------| 3-------------------------------|
D|--------------------------------|--------------------------------|
A|3-------------------------------|--------------------------------|
E|--------------------------------| 3---------------3---------------|

  |       |       |       |        |       |       |       |        
E|0-------0-------0-------0-------| 0---------------8---------------|
B|--------------------------------|----3---1-----------------------|
G|--------------------------------|--------------------------------|
D|--------------------------------|----------------7---------------|
A|--------------------------------| 0-------------------------------|
E|3-------------------------------|--------------------------------|

  |       |       |       |        |       |       |       |        
E|--------7---5---3---2---0-------| 0---------------------------0---|
B|----------------------------4---|--------0-------2-------4-------|
G|--------------------------------|--------------------------------|
D|--------------------------------| 2-------------------------------|
A|5---------------2---------------|----------------0---------------|
E|--------------------------------|--------------------------------|

  |       |       |       |        |       |       |       |        
E|--------------------------------|--------0-----------------------|
B|0-------------------------------|----------------2-------0-------|
G|--------2---1---2-------1-------| 1---------------------------2---|
D|----------------------------4---|--------------------------------|
A|--------------------------------|----------------0---------------|
E|4---------------2---------------| 0-------------------------------|

  |       |       |       |        |       |       |       |        
E|--------------------------------|----------------------------0---|
B|--------------------------------|--------0-------2-------4-------|
G|1-------------------------------|--------------------------------|
D|--------4---2---4-------2---1---| 2-------------------------------|
A|2---------------2---------------|----------------0---------------|
E|--------------------------------| 0-------------------------------|

  |       |       |       |        |       |       |       |        
E|--------------------------------|--------0-----------------------|
B|0-------------------------------|----------------4---2---0-------|
G|--------2---1---2-------1-------| 1---------------------------2---|
D|----------------------------4---|--------------------------------|
A|--------------------------------|----------------0---------------|
E|4---------------2---------------| 0-------------------------------|

  |       |       |       |        |       |       |       |        
E|--------------------------------|------------------------0-------|
B|--------------------------------|----------------------------0---|
G|1-------------------------------|--------------------------------|
D|--------4---2---4-------2---1---| 2-------------------------------|
A|2---------------2---------------|--------------------------------|
E|--------------------------------| 0-------------------------------|

  |       |       |       |        |       |       |       |        
E|--------------------------------|------------------------0-------|
B|0-------0-------0-------0-------|--------0-------------------0---|
G|--------------------------------| 1---2---------------------------|
D|2---------------2---------------| 0---------------0---------------|
A|--------------------------------|--------------------------------|
E|--------------------------------|--------------------------------|

  |       |       |       |        |       |       |       |        
E|--------------------------------|--------------------------------|
B|0-------0-------0-------0-------|----0---2---------------2-------|
G|--------------------------------| 3---------------------------2---|
D|0---------------0---------------|--------------------------------|
A|--------------------------------| 4---------------4---------------|
E|--------------------------------|--------------------------------|

  |       |       |       |        |       |       |       |        
E|3-------0-------0---------------|----0---2---------------7-------|
B|------------------------2-------| 3---------------0-----------7---|
G|--------------------------------|--------------------------------|
D|4---------------4---------------|--------------------------------|
A|--------------------------------| 2-------------------------------|
E|--------------------------------|--------------------------------|

  |       |       |       |        |       |       |       |        
E|--------7-----------------------| 7-------5---2---0-------5---0---|
B|7-----------7---7-------7-------|----8---------------------------|
G|--------------------------------| 0-------------------------------|
D|--------------------------------|--------------------------------|
A|7-----------7---7---------------|--------------------------------|
E|--------------------------------|--------------------------------|

  |       |       |       |        |       |       |       |        
E|0-------5---0---0-------0-------| 5---2---3---0-----------5-------|
B|--------------------------------|----------------3-----------3---|
G|0---------------0---------------|--------------------------------|
D|--------------------------------|----------------4---------------|
A|--------------------------------|--------------------------------|
E|--------------------------------| 2-------------------------------|

  |       |       |       |        |       |       |       |        
E|--------5---------------5-------|--------0---------------0-------|
B|2-----------2---0-----------0---|----------------0-----------0---|
G|--------------------------------| 2-----------2-------------------|
D|2---------------0---------------|--------------------------------|
A|--------------------------------| 4-------------------------------|
E|--------------------------------|----------------4---------------|

  |       |       |       |        |       |       |       |        
E|--------5---------------5-------| 0-------2---0-------------------|
B|2-----------2---3-----------3---|----------------3---2---0-------|
G|--------------------------------|----------------------------2---|
D|--------------------------------|----------------0---------------|
A|0---------------2---------------| 4-------------------------------|
E|--------------------------------|--------------------------------|

  |       |       |       |        |       |       |       |        
E|------------------------0-------|--------------------------------|
B|----------------------------1---| 1-------1-------1-------1-------|
G|1-------------------------------| 2---------------0---------------|
D|2-------2-----------------------|--------------------------------|
A|--------------------------------|--------------------------------|
E|--------------------------------|--------------------------------|

  |       |       |       |        |       |       |       |        
E|------------------------0-------|--------------------------------|
B|3-1-0---------------------------|--------------------------------|
G|--------2-------------------2---| 2-------2-------2-------2-------|
D|3---------------3---------------|--------------------------------|
A|--------------------------------| 3---------------3---------------|
E|--------------------------------|--------------------------------|

  |       |       |       |        |       |       |       |        
E|----------------1---------------|--------0-----------------------|
B|--------0---3-------------------|------------3---1---0-----------|
G|----1---------------------------|------------------------2---1---|
D|3---------------0-------2-------| 2-------------------------------|
A|5-------------------------------|--------------------------------|
E|--------------------------------|----------------0---------------|

  |       |       |       |        |       |       |       |        
E|------------------------0-------|--------------------------------|
B|----------------------------1---| 1-------1-------1-------1-------|
G|2-------------------------------| 2---------------0---------------|
D|--------------------------------|--------------------------------|
A|0-------------------------------|--------------------------------|
E|--------------------------------|--------------------------------|

  |       |       |       |        |       |       |       |        
E|------------------------5-------|--------------------------------|
B|2-------3-------------------6---| 3-------3-------3-------3-------|
G|--------------------------------|--------------------------------|
D|3---------------3---------------| 3-------------------------------|
A|--------------------------------|--------------------------------|
E|--------------------------------|--------------------------------|

  |       |       |       |        |       |       |       |        
E|--------0---------------8---5---| 0-------0-------0-------0-------|
B|4-------------------------------|--------------------------------|
G|--------------------------------|--------------------------------|
D|--------------------------------|--------------------------------|
A|3---------------3---------------| 3-------------------------------|
E|--------------------------------|--------------------------------|

  |       |       |       |        |       |       |       |        
E|1-----------------------10--7---| 0-------8---5-----------7---4---|
B|--------3-----------------------|----------------3---------------|
G|--------------------------------|--------------------------------|
D|0---------------0---------------|--------------------------------|
A|--------------------------------|--------------------------------|
E|--------------------------------| 0---------------0---------------|

  |       |       |       |        |       |       |       |        
E|5-------0-------2-------4---5---| 2---0---------------------------|
B|--------------------------------|--------3---2---3-------2---0---|
G|--------------------------------|--------------------------------|
D|----------------0---------------|--------------------------------|
A|0-------------------------------| 4---------------2---------------|
E|--------------------------------|--------------------------------|

  |       |       |       |        |       |       |       |        
E|--------5-------4---2---0-------|--------------------------------|
B|2---------------------------3---| 2-------0-------0---------------|
G|--------------------------------|------------2-----------2---1---|
D|----------------0---------------| 2-------------------------------|
A|0-------------------------------|--------------------------------|
E|--------------------------------|----------------0---------------|

  |       |       |       |        |       |       |       |        
E|--------0-------2-------4---5---| 0-------------------------------|
B|--------------------------------|--------3---2---3-------2---0---|
G|2-------------------------------|--------------------------------|
D|----------------0---------------|--------------------------------|
A|0-------------------------------| 4---------------2---------------|
E|--------------------------------|--------------------------------|

  |       |       |       |        |       |       |       |        
E|--------5-----------------------|--------------------------------|
B|2---------------7-------5---3---| 2-------0-------0---------------|
G|--------------------------------|------------2-----------2---1---|
D|----------------0---------------| 2-------------------------------|
A|0-------------------------------|--------------------------------|
E|--------------------------------|----------------0---------------|

  |       |       |       |        
E|--------------------------------|
B|--------------------------------|
G|2-------------------------------|
D|--------------------------------|
A|0-------------------------------|
E|--------------------------------|
Outros vídeos desta música
    13 exibições
      • ½ Tom
      • Am
      • Bbm
      • Bm
      • Cm
      • C#m
      • Dm
      • Ebm
      • Em
      • Fm
      • F#m
      • Gm
      • G#m
    • Adicionar à lista

    Afinação da cifra

    Afinador online

      0 comentários

      Ver todos os comentários

      Entre para o Cifra Club PRO

      Tenha acesso a benefícios exclusivos no App e no Site

      • Chega de anúncios

      • Badges exclusivas

      • Mais recursos no app do Afinador

      • Atendimento Prioritário

      • Aumente seu limite de lista

      • Ajude a produzir mais conteúdo

      Cifra Club Pro

      Aproveite o Cifra Club com benefícios exclusivos e sem anúncios
      Cifra Club Pro
      Aproveite o Cifra Club com benefícios exclusivos e sem anúncios
      OK