Cifra Club

Lado Do Altar

Casa Worship

Cifra: Principal (violão e guitarra)
Selo Cifra Club: esta cifra foi revisada para atender aos critérios oficiais da nossa Equipe de Qualidade.
tom: Db (forma dos acordes no tom de C) Capotraste na 1ª casa
[Intro] F  Am  F  Am

[Tab - Intro]

E|------------------------------------------------|
B|------------------------------------------------|
G|-11-10------11-10-----11-10------11-10----------|
D|-------8-----------11-------8----------11-------|
A|------------------------------------------------|
E|------------------------------------------------|

F                   Am         Em
Me encontraste tão longe, tão longe
F                   Am         Em
Me encontraste tão longe, tão longe

         F                    G
Pra quem foi preparado pra ficar
                 Am
Bem ao lado do altar
                    Em
Não dá pra viver distante

         F                    G
Pra quem foi preparado pra ficar
                 Am
Bem ao lado do altar
                    Em
Não dá pra viver distante

[Solo] F  G  Am  Em 

[Tab - Solo]

E|------------------------------------------------|
B|------------------------------------------------|
G|-11-10------11-10-----11-10------11-10----------|
D|-------8-----------11-------8----------11-------|
A|------------------------------------------------|
E|------------------------------------------------|

F                   Am         Em
Me encontraste tão longe, tão longe
F                   Am         Em
Me encontraste tão longe, tão longe

         F                    G
Pra quem foi preparado pra ficar
                 Am
Bem ao lado do altar
                    Em
Não dá pra viver distante

         F                    G
Pra quem foi preparado pra ficar
                 Am
Bem ao lado do altar
                    Em
Não dá pra viver distante

         F                    G
Pra quem foi preparado pra ficar
                 Am
Bem ao lado do altar
                    Em
Não dá pra viver distante

         F                    G
Pra quem foi preparado pra ficar
                 Am
Bem ao lado do altar
                    Em
Não dá pra viver distante

     F             G
Jesus, ai que saudade
               Em                Am
De te encontrar em meio aos altares
     F             G
Jesus, ai que vontade
           Em                  Am
De me perder em meio aos louvores

     F             G
Jesus, ai que saudade
               Em                Am
De te encontrar em meio aos altares
     F             G
Jesus, ai que vontade
           Em                  Am
De me perder em meio aos louvores

         F                    G
Pra quem foi preparado pra ficar
                 Am
Bem ao lado do altar
                    Em
Não dá pra viver distante

         F                    G
Pra quem foi preparado pra ficar
                 Am
Bem ao lado do altar
                    Em
Não dá pra viver distante

     F             G
Jesus, ai que saudade
               Em                Am
De te encontrar em meio aos altares
     F        Am  G
Jesus, ai que vontade
           Em                  Am
De me perder em meio aos louvores

     F             G
Jesus, ai que saudade
               Em                Am
De te encontrar em meio aos altares
     F        Am  G
Jesus, ai que vontade
           Em                  Am
De me perder em meio aos louvores

[Final] F  G  Am  Em

[Tab - Final]

E|------------------------------------------------|
B|------------------------------------------------|
G|------------------------------------------------|
D|------------------------------------------------|
A|-9-8----------9-8-------------------------------|
E|-----2-4----------6-1---------------------------|
Outros vídeos desta música
5.630 exibições
    • ½ Tom
    • A
    • Bb
    • B
    • C
    • Db
    • D
    • Eb
    • E
    • F
    • F#
    • G
    • Ab
  • Adicionar à lista

Afinação da cifra

Afinador online

    0 comentários

    Ver todos os comentários

    Entre para o Cifra Club PRO

    Tenha acesso a benefícios exclusivos no App e no Site

    • Chega de anúncios

    • Mais recursos no app do Afinador

    • Atendimento Prioritário

    • Aumente seu limite de lista

    • Ajude a produzir mais conteúdo

    Cifra Club Pro

    Aproveite o Cifra Club com benefícios exclusivos e sem anúncios
    Cifra Club Pro
    Aproveite o Cifra Club com benefícios exclusivos e sem anúncios
    OK