Cifra Club

Top Top

Cássia Eller

Tab de baixo: Principal
Selo Cifra Club: esta cifra foi revisada para atender aos critérios oficiais da nossa Equipe de Qualidade.
tom: Afinação:
(intro)
G ----------------------
D ----------------------
A --4---7--------------- 4x
E -----------4---444----

Lariii lariii lariii lariii
G -----------------7/9---7/9---7/9--7/9------
D -------------------------------------------
A -------------------------------------------
E --0----0----0------------------------------

(estrofe 2x)
G -----------------------------------------------------------------------------------------------
D -------------------------------------------4---------------------------------------------------
A -----------6--5--4--3--2--1--0--0-------5-----7--4--5--6-----------6-5-4-4-------------2h3--2-- 
E --0--0----------------------------------------------------0--0----------------2h3--2----------- 

sabotagem...
G -------------------------------------------------
D -------------------------------------------------
A --4--4----4--2-----4------4--2----------2--4----- 3x
E ----------------4--------------4--2--4-----------

...eu quero que você se, top top top
G --------------------------------
D --------------------5-----------
A -----------------------5--------
E -----5-------7------------0-----

(solo de percussão)

Lariii lariii lariii lariiii
( E )

sabotagem...
G -------------------------------------------------
D -------------------------------------------------
A --4--4----4--2-----4------4--2----------2h4----- 3x
E ----------------4--------------4--2--4-----------

...eu quero que você se, top top top
G ---------------------
D ---------------------
A ---------------------
E -----5-------7-------
Outros vídeos desta música
    5.889 exibições

    Afinação da cifra

    Afinador online

    0 comentários

    Ver todos os comentários

    Entre para o Cifra Club PRO

    Tenha acesso a benefícios exclusivos no App e no Site

    • Chega de anúncios

    • Badges exclusivas

    • Mais recursos no app do Afinador

    • Atendimento Prioritário

    • Aumente seu limite de lista

    • Ajude a produzir mais conteúdo

    Cifra Club Pro

    Aproveite o Cifra Club com benefícios exclusivos e sem anúncios
    Cifra Club Pro
    Aproveite o Cifra Club com benefícios exclusivos e sem anúncios
    OK