Cifra Club

How Can I Tell You

Cat Stevens

Cifra: Principal (violão e guitarra)
Selo Cifra Club: esta cifra foi revisada para atender aos critérios oficiais da nossa Equipe de Qualidade.
tom: D
     Em        D                          Em                A7
E|------0-----5--0h2-----2h3p2--2--0--/---0--0-------0-----0--0--------0---|
B|-----0-----2---------3--------------/-----------0---------------2--------|
G|----0-----2--------2----------------/-------------0----------------2-----|
D|---2-----2-----0--------------------/---------2---------------2----------|
A|--2---------------------------------/---2----------------0---------------|
E|------------------------------------/------------------------------------|

      D                       G
E|---0h2---2h3p2-------------3---------------------------------------------|
B|-------3----------3------------------------------------------------------|
G|---------------------2----------0----------------------------------------|
D|---0------------0--------------------------------------------------------|
A|------------------------------2------------------------------------------|
  E---------------------------3--------3--2--0-----------------------------|
Outros vídeos desta música
    8.420 exibições
      • ½ Tom
      • A
      • Bb
      • B
      • C
      • Db
      • D
      • Eb
      • E
      • F
      • F#
      • G
      • Ab
    • Adicionar à lista

    Afinação da cifra

    Afinador online

      0 comentários

      Ver todos os comentários

      Entre para o Cifra Club PRO

      Tenha acesso a benefícios exclusivos no App e no Site

      • Chega de anúncios

      • Badges exclusivas

      • Mais recursos no app do Afinador

      • Atendimento Prioritário

      • Aumente seu limite de lista

      • Ajude a produzir mais conteúdo

      Cifra Club Pro

      Aproveite o Cifra Club com benefícios exclusivos e sem anúncios
      Cifra Club Pro
      Aproveite o Cifra Club com benefícios exclusivos e sem anúncios
      OK