Cifra Club

Pro Dia Nascer Feliz

Cazuza

Cifra: Principal (violão e guitarra)
Selo Cifra Club: esta cifra foi revisada para atender aos critérios oficiais da nossa Equipe de Qualidade.
tom: A
[Intro] A  D/A  F/A  E/A  D/A  
        A  D/A  F/A  E/A  D/A  A

[Tab - Intro]

   A              D/A
E|------------------------------------------|
B|-2--------------3-------------------------|
G|-2--------------2-------------------------|
D|-2--------------4-------------------------|
A|-0--0-0-0-0-0-0-0--0-0-0-0-0-0------------|
E|------------------------------------------|

   F/A E/A D/A     A
E|------------------------------------------|
B|-6---5---3-------2------------------------|
G|-5---4---2-------2------------------------|
D|-7---6---4-------2------------------------|
A|-0-0-0-0-0-0-0-0-0-0-0-0-0-0-0-0----------|
E|------------------------------------------|

[Primeira Parte]

[Tab - Primeira Parte]

   A    D/A  F/A
E|------0----0------------------------------|
B|-2----3----6------------------------------|
G|-2----2----5------------------------------|
D|-2----4----7------------------------------|
A|-0----0----0------------------------------|
E|------------------------------------------|

   D/A A
E|------------------------------------------|
B|-7---2------------------------------------|
G|-7---2------------------------------------|
D|-7---2------------------------------------|
A|-0-0-0-0-0-0-0-0-0-0-0-0-0-0-0-0----------|
E|------------------------------------------|

A               D/A
  Todo dia a insônia
                   F/A
Me convence que o céu
                    D/A  A
Faz tudo ficar infini___to
             D/A
E que a solidão
                     F/A
É pretensão de quem fica
                   D/A  A
Escondido fazendo fi___ta

[Segunda Parte]

[Tab - Segunda Parte]

   G
E|-----3-x-x-3---x-x---3-x-x-3---x-x--------|
B|-----3-x-x-3---x-x---3-x-x-3---x-x--------|
G|-----4-x-x-4---x-x---4-x-x-4---x-x--------|
D|-5-----------------5----------------------|
A|-5-----------------5----------------------|
E|-3-----------------3----------------------|

   F
E|-----5-x-x-6-5-x-----5-x-x-6-5-x----------|
B|-6---6-x-x-6-6-x-6---6-x-x-6-6-x----------|
G|-5-----x-x-5---x-5-----x-x-5---x----------|
D|------------------------------------------|
A|------------------------------------------|
E|------------------------------------------|

   G                 D/A
E|-----3-x-x-3---x-x-0--0-------------------|
B|-----3-x-x-3---x-x-3----3-----------------|
G|-----4-x-x-4---x-x-2------2---------------|
D|-5-----------------4--------4-------------|
A|-5-----------------0----------------------|
E|-3----------------------------------------|

   F7(4)                 F
E|-1--1-------1--1-------1--1---------------|
B|-1----1-----1----1-----1----1-------------|
G|-3------3---3------3---2------2-----------|
D|-1----------1----------3------------------|
A|-3----------3----------3------------------|
E|-1----------1----------1------------------|

G
  Todo dia tem a hora
             F   G
Da sessão coruja
                   D/A  F7(4)
Só entende quem namora

Agora "vão bora"
   F                 A
Estamos bem por um triz

[Refrão]

[Tab - Refrão]

   A            G
E|--------------------3-x-x-3--x-x----------|
B|-2---2-2-x-2--------3-x-x-3--x-x----------|
G|-2---2-2-x-2--------4-x-x-4--x-x----------|
D|-2---2-4-x-2--x-5-------------------------|
A|-0---0-0-x-0--x-5-------------------------|
E|--------------x-3-------------------------|

   D             G
E|-x-2-3-x-3-2-x-----3-x-x-3--x-x-----------|
B|-x-3-3-x-3-3-x-----3-x-x-3--x-x-----------|
G|-x-2-2-x-2-2-x-----4-x-x-4--x-x-----------|
D|-x-0-0-x-0-0-x-5--------------------------|
A|---------------5--------------------------|
E|---------------3--------------------------|

   D             G
E|-x-2-3-x-3-2-x-----3-x-x-3--x-x-----------|
B|-x-3-3-x-3-3-x-----3-x-x-3--x-x-----------|
G|-x-2-2-x-2-2-x-----4-x-x-4--x-x-----------|
D|-x-0-0-x-0-0-x-5--------------------------|
A|---------------5--------------------------|
E|---------------3--------------------------|

   D             F/A
E|-x-2-x-x-2---x----------------------------|
B|-x-3-x-x-3---x-6-----6--------------------|
G|-x-2-x-x-2---x-5-----5--------------------|
D|-x-0-x-x-0---x-7-----7--------------------|
A|---------------0---0-0---0----------------|
E|------------------------------------------|

   A            G
E|--------------------3-x-x-3--x-x----------|
B|-2---2-2-x-2--------3-x-x-3--x-x----------|
G|-2---2-2-x-2--------4-x-x-4--x-x----------|
D|-2---2-4-x-2--x-5-------------------------|
A|-0---0-0-x-0--x-5-------------------------|
E|--------------x-3-------------------------|

   D             G
E|-x-2-3-3-3-2-x-----3-x-x-3--x-x-----------|
B|-x-3-3-3-3-3-x-----3-x-x-3--x-x-----------|
G|-x-2-2-2-2-2-x-----4-x-x-4--x-x-----------|
D|-x-0-0-0-0-0-x-5--------------------------|
A|---------------5--------------------------|
E|---------------3--------------------------|

   D             G
E|-x-2-3-x-3-2-x-----3-x-x-3--x-x-----------|
B|-x-3-3-x-3-3-x-----3-x-x-3--x-x-----------|
G|-x-2-2-x-2-2-x-----4-x-x-4--x-x-----------|
D|-x-0-0-x-0-0-x-5--------------------------|
A|---------------5--------------------------|
E|---------------3--------------------------|

   D             F/A
E|-x-2-x-x-2---x----------------------------|
B|-x-3-x-x-3---x-6-----6--------------------|
G|-x-2-x-x-2---x-5-----5--------------------|
D|-x-0-x-x-0---x-7-----7--------------------|
A|---------------0---0-0---0----------------|
E|------------------------------------------|

   A
E|------------------------------------------|
B|------------------------------------------|
G|-2----------------------------------------|
D|-2----------------------------------------|
A|-0--0-0-0-0-0-0-0-0-0-0-0-0-0-0-----------|
E|------------------------------------------|

     G            D  G
Pro dia nascer feliz
                  D  G
Pro dia nascer feliz
                        D
O mundo inteiro acordar
              F/A     A
E a gente dormir, dormir

     G            D  G
Pro dia nascer feliz
                       D  G
Essa é a vida que eu quis
                     D
O mundo inteiro acordar
              F/A  A
E a gente dormir

[Terceira Parte]

A             D/A
  Todo dia é dia
                    F/A
E tudo em nome do amor 
                           D/A  A
Ah! Essa é a vida que eu quis
            D/A
Procurando vaga
                         F/A
Uma hora aqui, a outra ali
                           D/A  A
No vai e vem dos teus quadris

[Quarta Parte]

G                   F       G
  Nadando contra a corrente
              F  G
Só pra exercitar
                    F7(4)
Todo o músculo que sente
    F                    A
Me dê de presente o teu bis

[Refrão]

     G            D  G
Pro dia nascer feliz
                  D  G
Pro dia nascer feliz
                        D
O mundo inteiro acordar
              F/A     A
E a gente dormir, dormir

     G            D  G
Pro dia nascer feliz
                       D  G
Essa é a vida que eu quis
                     D
O mundo inteiro acordar
              F/A  A
E a gente dormir

( A ) 

[Tab - Interlúdio]

E|---------0--------------------------------|
B|-------5---5------------------------------|
G|-----6-------6----------------------------|
D|---7-----------7--------------------------|
A|-0----------------------------------------|
E|------------------------------------------|

E|---------0--------------------------------|
B|-----------3------------------------------|
G|-------2-----2----------------------------|
D|----5----------5--------------------------|
A|-0----------------------------------------|
E|------------------------------------------|

E|---------0--------------------------------|
B|-----------2------------------------------|
G|-------2-----2----------------------------|
D|----4----------4--------------------------|
A|-0----------------------------------------|
E|------------------------------------------|

E|---------0--------------------------------|
B|-------5---5------------------------------|
G|-----6-------6----------------------------|
D|---7-----------7--------------------------|
A|-0----------------------------------------|
E|------------------------------------------|

[Terceira Parte]

A             D/A
  Todo dia é dia
                    F/A
E tudo em nome do amor 
                           D/A  A
Ah! Essa é a vida que eu quis
            D/A
Procurando vaga
                         F/A
Uma hora aqui, a outra ali
                           D/A  A
No vai e vem dos teus quadris

[Quarta Parte]

G                   F       G
  Nadando contra a corrente
              F  G
Só pra exercitar
                    F7(4)
Todo o músculo que sente
    F                    A
Me dê de presente o teu bis

[Refrão]

     G            D  G
Pro dia nascer feliz
                  D  G
Pro dia nascer feliz
                        D
O mundo inteiro acordar
              F/A     A
E a gente dormir, dormir

     G            D  G
Pro dia nascer feliz
                       D  G
Essa é a vida que eu quis
                     D
O mundo inteiro acordar
              F/A  A
E a gente dormir

( G  D/F#  G )

[Solo] A  G  D/F#  G

[Tab - Solo]

E|-12b-------12--12--12--12----------------------------|
B|-12b13----b13-b13-b13-b13r12p10----10~---10~\--------|
G|--------------------------------11-------------------|
D|-----------------------------------------------------|
A|-----------------------------------------------------|
E|-----------------------------------------------------|

E|-----------------------------------------------------|
B|-----------------------------------------------------|
G|-------------------------9b11r9--7-------------------|
D|-------7---9b10-9-7~---7-----------9b10r9-7----------|
A|-7-7/9---9-------------------------------------------|
E|-----------------------------------------------------|

E|-----------------------------------------------------|
B|-----------------------------------------------------|
G|-----9-------7-------6-------7-------9-------7---6-6-|
D|-7-------7-7-----7-7-----7-7-----7-7-----7-7---------|
A|-----------------------------------------------------|
E|-----------------------------------------------------|

E|-----------------------------------------------------|
B|-----------------------------------------------------|
G|-6------7b9r7p6-7p6----------------------------------|
D|---7-5--------------7-5-4-5p4------------------------|
A|------------------------------7-5-/4-----------------|
E|-------------------------------------5-5-------------|

E|-----------------------------------------------------|
B|-----------------------------------------------------|
G|--------------5b-------------------------------------|
D|-----5---7-7~----------------------------------------|
A|-5/7---7---------------------------------------------|
E|-----------------------------------------------------|

E|-----5-5----5-5----5-5----5-5----5-5-8b--------------|
B|-----5-5----5-5----5-5----5-5----5-5-----------------|
G|-7b------7b-----7b-----7b-----7b---------------------|
D|-----------------------------------------------------|
A|-----------------------------------------------------|
E|-----------------------------------------------------|

E|-5---------------------------------------------------|
B|---5-8b-5-------------------8---10-10~---/10-13-10---|
G|----------7b9r7p5---7~~--/9---9----------------------|
D|------------------7----------------------------------|
A|-----------------------------------------------------|
E|-----------------------------------------------------|

E|-----------------------------------------------------|
B|-15b17-15b17-15b17-------13-13-13~--------13---------|
G|---------------------/14------------12-14------------|
D|-----------------------------------------------------|
A|-----------------------------------------------------|
E|-----------------------------------------------------|

E|-----------------------------------------------------|
B|-15b17---b17-b17-b17-b17r15p13--15b17---b17-b17-b17--|
G|-----------------------------------------------------|
D|-----------------------------------------------------|
A|-----------------------------------------------------|
E|-----------------------------------------------------|

E|-----------------------------------------------------|
B|-b17r15p13---15b17---b17-b17-b17-b17r15p13--15b17~~--|
G|-----------------------------------------------------|
D|-----------------------------------------------------|
A|-----------------------------------------------------|
E|-----------------------------------------------------|

E|-----17----17-17-17-17-17------17-22b24--------------|
B|-/19----19-----------------/19-----------------------|
G|-----------------------------------------------------|
D|-----------------------------------------------------|
A|-----------------------------------------------------|
E|-----------------------------------------------------|

[Final] A  D/A  F/A  E9/A  D/A
        A  D/A  F/A  E9/A  D/A  A
Outros vídeos desta música
    766.338 exibições
    • Simplificar cifra
      • ½ Tom
      • A
      • Bb
      • B
      • C
      • Db
      • D
      • Eb
      • E
      • F
      • F#
      • G
      • Ab
    • Adicionar à lista

    Afinação da cifra

    Afinador online

      0 comentários

      Ver todos os comentários

      Entre para o Cifra Club PRO

      Tenha acesso a benefícios exclusivos no App e no Site

      • Chega de anúncios

      • Badges exclusivas

      • Mais recursos no app do Afinador

      • Atendimento Prioritário

      • Aumente seu limite de lista

      • Ajude a produzir mais conteúdo

      Cifra Club Pro

      Aproveite o Cifra Club com benefícios exclusivos e sem anúncios
      Cifra Club Pro
      Aproveite o Cifra Club com benefícios exclusivos e sem anúncios
      OK