Cifra Club

Pro Dia Nascer Feliz

Cazuza

Cifra: Principal
exibições 493.151
Tom: D
(intro) A F/A D/A E/A D/A

 A             D/A
 Todo dia a insônia
                   F/A
 Me convence que o céu
                    D    A
 Faz tudo ficar infini...to
A            D/A
 E que a solidão
                      F/A
 É pretensão de quem fica
                   D    A
 Escondido fazendo fi...ta
G                                F
 Todo dia tem a hora da sessão coruja, hum...
G                  D
 Só entende quem namora
F
 Agora vão'bora
   F                A
 Estamos bem por um triz
     G            D
 Pro dia nascer feliz, hum...
G                 D
 Pro dia nascer feliz
G                    D
 O mundo inteiro acordar
              F       A
 E a gente dormir, dormir
     G            D
 Pro dia nascer feliz
G                         D
 Ah! Essa é a vida que eu quis
G                    D
 O mundo inteiro acordar
              F      A
 E a gente dormir...

A           D/A
 Todo dia é dia
                    F/A
 E tudo em nome do amor
                           D   A
 Ah! Essa é a vida que eu quis
              D/A
 Procurando vaga
                         F/A
 Uma hora aqui, a outra ali
                          D    A
 No vai e vem dos teus quadris
G                   F
 Nadando contra a corrente
G             F
 Só pra exercitar...
G                   F
 Todo o músculo que sente
                          A
 Me dê de presente o teu bis
       G          D
 Pro dia nascer feliz, é!
G                 D
 Pro dia nascer feliz
G                    D
 O mundo inteiro acordar
              F       A
 E a gente dormir, dormir
       G          D
 Pro dia nascer feliz, é!
G                 D
 Pro dia nascer feliz
G                    D
 O mundo inteiro acordar
              F       A
 E a gente dormir, dormir
          (A)
 Oh oh oh oh
 Oh oh oh oh
 Oh oh oh oh...

A           D/A
 Todo dia é dia
                    F/A
 E tudo em nome do amor
                      D    A
 Essa é a vida que eu quis
              D/A
 Procurando vaga
                         F/A
 Uma hora aqui, a outra ali
                          D    A
 No vai e vem dos teus quadris
G                   F
 Nadando contra a corrente
G             F
 Só pra exercitar
G                   F
 Todo o músculo que sente
                          A
 Me dê de presente o teu bis
       G          D
 Pro dia nascer feliz
G                 D
 Pro dia nascer feliz, hum...
G                    D
 O mundo inteiro acordar
              F       A
 E a gente dormir, dormir
       G          D
 Pro dia nascer feliz
     G                       D
 Ah!   Essa é a vida que eu quis
   G                 D
 O mundo inteiro acordar
              F       A
 E a gente dormir...

(solo)
E|----12--------------------------------------------------|
B|---12b....----12p10-----10~-----------------------------|
G|---------------------11---------------------------------|
D|-----------------------------------------7----9b10-7~---|
A|-------------------------------------7-9---9------------|
E|-----------------------------------9--------------------|

E|--------------------------------------------------------|
B|--------------------------------------------------------|
G|-9b10-9-7-6--9x-7x-6x-7x-9x-7x-6x---7b8-6~--------------|
D|--------------------------------------------------------|
A|--------------------------------------------------------|
E|--------------------------------------------------------|

E|---------------------------------------------------------------------------16b18~~~---|
B|-----------------------------11--12b13--12-10---14-17-14-17-14-1717-14-17------------|
G|---------------------10--12-----------------------------------------------------------|
D|-----------------11-------------------------------------------------------------------|
A|--------------9-----------------------------------------------------------------------|
E|-7b--5~--7/9--------------------------------------------------------------------------|
Acordes para:
    Composição: Cazuza / Roberto FrejatColaboração e revisão:
    • Robertto Silveira
    • jose basilio

    0 comentários

      mostrar mais comentários

      Conseguiu tocar?

      21tocaram0ainda não

      Grave um vídeo tocando Pro Dia Nascer Feliz e mande pra gente!

      00:00 / 00:00
      outros vídeos desta música
      repetirqualidadeautomática
      Outro vídeos desta música
        00:00 / 00:00
        automática
        OK