Cifra Club

Viejo diablo

Chancho En Piedra

Cifra: Principal (violão e guitarra)
Selo Cifra Club: esta cifra foi revisada para atender aos critérios oficiais da nossa Equipe de Qualidade.
tom: C#m
Intro:
C#m7  - G#m7  
C#m7  - F#m7 

E|-9-7----------------------------------------7-----------|
B|-----9-7b-5-7-5----7-5----------5---5h7b(8)---7b(8)-5---|
G|-----------------6------6-4h6-6---6---------------------|
D|--------------------------------------------------------|
A|--------------------------------------------------------|
E|--------------------------------------------------------|

E|-9-7-----------------------------------9-12-14-12-16-14-12-9-|
B|-----9-7b-5-7-5----7-5------------9-12-----------------------|
G|----------------6------6-4h6-9-11----------------------------|
D|-------------------------------------------------------------|
A|-------------------------------------------------------------|
E|-------------------------------------------------------------|



C#m7            Bm7              C#m7               F#m7 
En este mundo existe tanta gente con pocas puedo vivir,
C#m7             Bm7       C#m7                        F#m7 
Unos creen ser superiores, ellos creen en poder prohibir.

Aquí se repite lo mismo que arriba:

Entre todo el mundo,
Debes procrear un sendero nuevo trazar
Debas ser fecundo,
Inunda al mundo de hijos que no paren de amar.


Nose si se entiende mucho:

C#m7  G#m7  
Hijos,
   C#m7      F#m7 
de mis hijos,
C#m7    G#m7   C#m7   A#m7 
Creen un mundo feliz  uuhhh,

C#m7  G#m7  
Hijos,
C#m7       F#m7 
su abuelo lo quizo haci
A#m7            G#m7  
Creen una vida feliz.


D#m7 -A#m7 
C#m7        D#m7    A#m7 
No me hagas sentir mal,
C#m7     D#m7  A#m7 
Cortando mis alas,
C#m7        D#m7  A#m7    G#m7  
No me hagas seeeeeeeentir mal.

G  O

E|-9-7----------------------------------------7-----------|
B|-----9-7b-5-7-5----7-5----------5---5h7b(8)---7b(8)-5---|
G|-----------------6------6-4h6-6---6---------------------|
D|--------------------------------------------------------|
A|--------------------------------------------------------|
E|--------------------------------------------------------|

E|-9-7-----------------------------------9-12-14-12-16-14-12-9-|
B|-----9-7b-5-7-5----7-5------------9-12-----------------------|
G|----------------6------6-4h6-9-11----------------------------|
D|-------------------------------------------------------------|
A|-------------------------------------------------------------|
E|-------------------------------------------------------------|

E|-20b(21)-14b(15)14-12-9-|
B|------------------------|
G|------------------------|
D|------------------------|
A|------------------------|
E|------------------------|

|14b(15)14-12h14b(15)-12h14b(15)-12h14b(15)-12h14b(15)-|
B|------------------------------------------------------|
G|------------------------------------------------------|
D|------------------------------------------------------|
A|------------------------------------------------------|
E|------------------------------------------------------|


E|-9-12-9-7h9~---------12h14*-12h14*--------14b(15)-|
B|--------------12h14-------*-------12h14*----------|
G|--------------------------------------------------|
D|--------------------------------------------------|
A|--------------------------------------------------|
E|--------------------------------------------------|
Outros vídeos desta música
    166 exibições
      • ½ Tom
      • Am
      • Bbm
      • Bm
      • Cm
      • C#m
      • Dm
      • Ebm
      • Em
      • Fm
      • F#m
      • Gm
      • G#m
    • Adicionar à lista

    Afinação da cifra

    Afinador online

      0 comentários

      Ver todos os comentários

      Entre para o Cifra Club PRO

      Tenha acesso a benefícios exclusivos no App e no Site

      • Chega de anúncios

      • Badges exclusivas

      • Mais recursos no app do Afinador

      • Atendimento Prioritário

      • Aumente seu limite de lista

      • Ajude a produzir mais conteúdo

      Cifra Club Pro

      Aproveite o Cifra Club com benefícios exclusivos e sem anúncios
      Cifra Club Pro
      Aproveite o Cifra Club com benefícios exclusivos e sem anúncios
      Ops (: Contenido disponible sólo en portugués.
      OK