Cifra Club

Eden

Chancho En Piedra

Cifra: Principal (violão e guitarra)
tom: Bm
intro :
la guitarra sola


E|---x-x-x-x-----x--------------|
B|---x-x-x-x--10-x--------------|
G|---x-x-x-x-----x--11-11-11-11-|
D|---x-x-x-x-----x--------------| X 3
A|---x-x-x-x-----x--------------|
E|---x-x-x-x-----x--------------|

solo en la ultima
E|---x-x-x-x-----x-----------------------|
B|---x-x-x-x--10-x---11-12-13-12-11------|
G|---x-x-x-x-----x-----------------------|
D|---x-x-x-x-----x-----------------------|
A|---x-x-x-x-----x-----------------------|
E|---x-x-x-x-----x-----------------------|


luego  sige lo mismo  con  toda la banda .....

en los versos .se hasen variasiones de lo mismo


coro :

fiestas eternas        un cielo funk
E|------------------|-------------|
B|------------------|-------------|
G|------------5-----|-----5--7--5-|
D|---7--5-----5--7--|--7--5--7--5-|
A|---7--5--2--3--7--|--7--3--5--3-|
E|---5--3--0-----5--|--5----------|

todas tus penas  quedan atraz
E|------------------------------|
B|-----------5------------------|
G|---7--5----5--7--------5------|
D|---7--5-7--3--7--5-7---5--7---|
A|---5--3-7-----5--5-7---3--7---|
E|--------5--------3-5------5---|

haz lo que kieas no existe el mal

E|------------------|-------------|
B|------------------|-------------|
G|------------5-----|-----5--7--5-|
D|---7--5-----5--7--|--7--5--7--5-|
A|---7--5--2--3--7--|--7--3--5--3-|
E|---5--3--0-----5--|--5----------|

todos tus sueños seran verdad
E|------------------------------|
B|-----------5------------------|
G|---7--5----5--7--------5------|
D|---7--5-7--3--7--5-7---5--7---|
A|---5--3-7-----5--5-7---3--7---|
E|--------5--------3-5------5---|

el verso como ya dije , es casi igual a la intro con un poko de variasion

coro:

triste no estare           en mi nube navergare
E|--7-------------------|--3--2-1--|
B|--7-------------------|--3--2-1--|
G|--8-8^8---5h7-7-^7--77|--4--3-2--|
D|--9-------------------|--5--4-3--|
A|----------------------|----------|
E|----------------------|----------|

solo :
E|--------------------10---10h12h10-|
B|--12-10-------10h12---12----------|
G|--------10h12---------------------|
D|----------------------------------|
A|----------------------------------|
E|----------------------------------|

E|------------------10-1212--------------------|
B|-12-10--1212--10h12----------1312h14-1212h14-|
G|--------1010-----------------1010h12-1010h12-|
D|---------------------------------------------|
A|---------------------------------------------|
E|---------------------------------------------|

E|-----------13--------------------13-----------13-|
B|--13h15-13----15--------13-14-15----15-13--------|
G|------------------13h15--------------------15----|
D|-------------------------------------------------|
A|-------------------------------------------------|
E|-------------------------------------------------|

hu ha en todo el mundio , soy dueño de el fundo

E|---------------------------------------|
B|---10--x-10-10-10----16-15-14-13-------|
G|----9--x-11-11-11----------------------|
D|---------------------------------------|
A|---------------------------------------|
E|---------------------------------------|


abro mi mente y camino por sobre el agua , y bajo de ella

E|---------------------------------------|
B|---10--x-10-10-10----16-15-14-13-------|
G|----9--x-11-11-11----------------------|
D|---------------------------------------|
A|---------------------------------------|
E|---------------------------------------|

final :
E|--------------x-x----------------|
B|--------------x-x----------------|
G|--------7--9--x-x----------------|
D|--5--7--7--9--x-x----------------|
A|--5--7--5--7--x-x----------------|
E|--3--5--------x-x----------------|

yapo , era eso no mas ....ojala ke les sirva de algo
si les kuesta mucho haser una nota , solo pueden haser la kuerda
mas gruesa kualkier duda o komentario me mandan un email chAu
00:00 / 00:00
Outros vídeos desta música
Repetir
Outros vídeos desta música
Compositor não encontrado.
21 exibições
    • ½ Tom
    • Am
    • Bbm
    • Bm
    • Cm
    • C#m
    • Dm
    • Ebm
    • Em
    • Fm
    • F#m
    • Gm
    • G#m
  • Adicionar à lista

    0 comentários

    Ver todos os comentários

    Conseguiu tocar?

    0 Tocaram 0 Ainda não

    Grave um vídeo tocando Eden e nos envie!

    Entre para oCifra Club PRO

    Tenha acesso a benefícios exclusivos no App e no Site

    • Chega de anúncios

    • Prioridade de compra em lançamentos

    • Mais recursos no app do Afinador

    • Atendimento Prioritário

    • Descontos nos produtos Cifra Club

    • Ajude a produzir mais conteúdo

    00:00 / 00:00

    Cifra Club Pro

    Aproveite o Cifra Club com benefícios exclusivos e sem anúncios
    Cifra Club Pro
    Aproveite o Cifra Club com benefícios exclusivos e sem anúncios
    OK