Cifra Club

Quero Conhecer Jesus (O Meu Amado É o Mais Belo)

Cia. Salt

Cifra: Tablatura-completa (violão e guitarra)
exibições 5.811
Tom: B (forma dos acordes no tom de A) Capotraste na 2ª casa
[Intro]

       D         E           F#m            C#m
E|--------------------------------10----------------0--|
B|--------------------------8-----------------3--------|
G|--------0--------0-----7-----7-----------0-----0-----|
D|-----2--------4--------------------------------------|
A|--3--------5--------7-----------------2--------------|
E|-----------------------------------------------------|

      D         E           F#m            C#m
E|-----------------------------------------------------|
B|--------14-------17----------19/17-17-------12-------|
G|-----11-------13----------14-------------13----------|
D|--12-------14----------16-------------11-------------|
A|-----------------------------------------------------|
E|-----------------------------------------------------|

        D         E           F#m            C#m
E|--------------------------------------|
B|---9/10----10/12----12/14----17----9--|
G|--------------------------------------|
D|--------------------------------------|
A|--------------------------------------|
E|--------------------------------------|

       D        E      F#m     C#m
E|-----------14----------12----------------14----------12----|
B|-----------------------------------------------------------|
G|-----11----------13-------------14-------------9-----------|
D|--12----------14-------------16-------------11-------------|
A|-----------------------------------------------------------|
E|-----------------------------------------------------------|

      D     E     F#m         E     D     E     F#m
E|-----------------------------------------------|
B|--7-----9-----10----9-----7-----9-----10----12-|
G|--7-----9-----11----9-----7-----9-----11----13-|
D|-----------------------------------------------|
A|-----------------------------------------------|
E|-----------------------------------------------|

      D     E     F#m
E|--------------------------------------------------|
B|--------------------------------------------------|
G|--------------------------------------------------|
D|--5--7--9--11-------------------------------------|
A|--5--7--9- 11-------------------------------------|
E|--3--5--7--9--------------------------------------|

      D   F#m    A    E
E|-----------------------------------------------------------|
B|-----------------------------------------------------------|
G|--7-----9--11----13----12----9-----------------------------|
D|-----------------------------------------------------------|
A|--5-----7--9-----11----14----7-----------------------------|
E|-----------------------------------------------------------|

      D   F#m    A    E
E|-----------------------|
B|-----------------------|
G|-----------------------|
D|--5--9-----11-12----7--|
A|--5--9-----11-12----7--|
E|--3--7-----9--10----5--|

[Solo]

      D   F#m    A    E
E|--9--12----9--17----5--12----4--|
B|--------------------------------|
G|--------------------------------|
D|--------------------------------|
A|--------------------------------|
E|--------------------------------|

Yeshua
     D       E      F#m       E
E|--------------------------------------------------|
B|--5---5h7--5--7--5--7--9--10----9--10----14----9--|
G|--------------------------------------------------|
D|--------------------------------------------------|
A|--------------------------------------------------|
E|--------------------------------------------------|

    D    F#m   A   E
E|-----------------------|
B|--3--5--7--9--10----5--|
G|--2-----6-----9-----4--|
D|-----2--4--6--7-----2--|
A|-----------------------|
E|-----------------------|
Acordes para:
    Composição: Alessandro Vilas Boas Colaboração e revisão:
    • Douglas

    0 comentários

    mostrar mais comentários

    Conseguiu tocar?

    2 tocaram 0 ainda não

    Grave um vídeo tocando Quero Conhecer Jesus (O Meu Amado É o Mais Belo) e mande pra gente!

    00:00 / 00:00
    outros vídeos desta música
    repetir qualidade Automático
    Outros vídeos desta música
    00:00 / 00:00
    Automático
    Capítulos
    • Tocando a música
    • Apresentação / Equipamentos
    • Acordes da introdução
    • Tocando introdução e primeira parte
    • Dedilhado introdução e primeira parte
    • Acordes segunda parte
    • Tocando segunda parte
    • Ritmo da segunda parte
    • Dicas primeira parte (repetição)
    • Tocando primeira parte (repetição)
    • Ritmo da primeira parte (repetição)
    • Acorde segunda parte (repetição)
    • Tocando segunda parte (repetição)
    • Acordes do refrão
    • Tocando refrão
    • Ritmo do refrão
    • Dicas terceira parte
    • Tocando terceira parte
    • Ritmo da terceira parte
    • Dicas finais
    • Tocando final
    • Encerramento
    OK