Enviar cifraEntrar

Dia Especial

Cidadão Quem

Cifra: Principal
exibições 360.856
Tom: G
Intro: G C9 G C9


E|---------------------------------------------------------|
A|---------------------------------------------------------|
D|------------------------------------------------4-5------|
G|--4/5-4--2--4/5-4--2--4-4---4/5-4--2-4/5-4-2-------------|
B|---------------------------------------------------------|
E|---------------------------------------------------------|


Este Link que vou passar é para usar na ligação do Am - G no final da estrofe
(link1)

E|--------------3------------------------------------------|
A|--------------2------------------------------------------|
D|--------------0------------------------------------------|
G|-----2h0------0------------------------------------------|
B|---------2h0--3------------------------------------------|
E|--------------3------------------------------------------|


G     C9
Se alguém
       D
Já lhe deu a mão
                D#°
E não pediu mais nada em troca
Em    A7              C   C/B   Am     (link1)
Pense bem, pois é um dia especial

G  C9        D
Eu sei não é sempre
            D#°
Que a gente encontra alguém
Em       A7
Que faça bem
        C   C/B     Am         (link1)
Que nos leve desse temporal

G    C9   D
O amor é maior que tudo
           D#°      Em
Do que todos até a dor
    A7
Se vai
         C     C/B   Am     (link1)
Quando o olhar é natural

G  C9            D
Sonhei que as pessoas eram boas
     D#°      Em
Em um mundo de amor
    A7         C     C/B   Am
Acordei nesse mundo marginal

Refrão:
C      D
Mas te vejo e sinto
  G      G/F#  Em  D9
O brilho desse olhar
C9       D
Que me acalma
         D#°         Em
Me traz força pra encarar tudo
C      D
Mas te vejo e sinto
  G      G/F#  Em  D9
O brilho desse olhar
C9       D
Que me acalma
         D#°      Em         C   Cm
Me traz força pra encarar tudo

Solo: G C9 G C9

G    C9   D
O amor é maior que tudo
           D#°      Em
Do que todos até a dor
    A7
Se vai
         C      C/B   Am  (link1)
Quando o olhar é natural

G  C9            D
Sonhei que as pessoas eram boas
     D#°      Em
Em um mundo de amor
    A7         C    C/B   Am
Acordei nesse mundo marginal


  • 1
  • 2
  • 3
  • 4
  • 5
  • 6
  • 7
  • 8
  • 9
  • 10
  • 11
  • 12

    0 comentários

      mostrar mais comentários

      Conseguiu tocar?

      18tocaram0ainda não

      Grave um vídeo tocando Dia Especial e mande pra gente!

      00:00 / 00:00
      outros vídeos desta música
      repetirqualidadeautomática
      • automática
      Outro vídeos desta música
        00:00 / 00:00
        automática
        • automática
        Acordes para:violão e guitarra
        dificuldadeexibiçõescontribuições
        1 versão de Tab de baixoexibiçõescontribuições
        1 versão de Guitar Proformatodownloadscontribuição
        fecharplay/pause subir/descer velocidade
          Acordes para:violão e guitarra
          acordes
          fechar
          OK