Enviar cifraEntrar

O Astronauta de Mármore

Nenhum de Nós

Cifra: Principal
exibições 979.897
Tom: F
Intro: Bb F
Solo intro:

E|------------------------------------------------|
B|------------8-----------------------------------|
G|---3-5-5/7----7~/--------3-3/2-2h3p2------------|
D|-5-----------------3h5---------------3/5/3------|
A|------------------------------------------------|
E|------------------------------------------------|


Gm
A lua inteira agora é um manto negro
F
O fim das vozes no meu rádio
C                      C7               F   G# Bb G#m
São quatro ciclos no escuro deserto do céu
Gm
Quero um machado pra quebrar o gelo
F
Quero acordar do sonho agora mesmo
C                       C7            A  G
Quero uma chance de tentar viver sem dor

Refrão:
       F           Dm
Sempre estar lá, e ver ele voltar
    Am                      C
Não era mais o mesmo, mas estava em seu lugar
          F        Dm
Sempre estar lá, e ver ele voltar
  Am                        C
O tolo teme a noite, como a noite vai temer o fogo

Bb    Bbm
Vou chorar sem medo
F         Dm
  Vou lembrar do tempo
Gm           C             Bb
  De onde eu via o mundo azul

Base 2x: ( Bb F C F )
Solo 2x:
Parte 1

E|-------------------------------------------------------|
B|-3--3--1----------1-3/5--5-3--1------------------------|
G|---------3-2--2-3---------------2----------------------| 
D|-------------------------------------------------------|
A|-------------------------------------------------------|
E|-------------------------------------------------------|


Parte 2

E|----------10-10--------------------10/12-12-10---------|
B|-10-11-13-------13-11-10--10-11-13-------------13--10--|
G|-------------------------------------------------------|
D|-------------------------------------------------------|
A|-------------------------------------------------------|
E|-------------------------------------------------------|


Gm
A trajetória escapa o risco nú...
F
As nuvens queimam o céu, nariz azul...
C                         C7               F  G# Bb G#m
Desculpe estranho, eu voltei mais puro do céu
Gm
Na lua o lado escuro é sempre igual...
F
No espaço a solidão é tão normal...
C                         C7               A   G
Desculpe estranho, eu voltei mais puro do céu

       F           Dm
Sempre estar lá, e ver ele voltar
    Am                       C
Não era mais o mesmo, mas estava em seu lugar
          F         Dm
Sempre estar lá, e ver ele voltar
  Am                        C
O tolo teme a noite, como a noite vai temer o fogo
 
 Bb     Bbm
Vou chorar sem medo
F          Dm
Vou lembrar do tempo
Gm          C            Bb
De onde eu via o mundo azul

Base 2x: ( Bb F C F )
Solo 2x:
Parte 1

E|-------------------------------------------------------|
B|-3--3--1----------1-3/5--5-3--1------------------------|
G|---------3-2--2-3---------------2----------------------| 
D|-------------------------------------------------------|
A|-------------------------------------------------------|
E|-------------------------------------------------------|


Parte 2

E|----------10-10--------------------10/12-12-10---------|
B|-10-11-13-------13-11-10--10-11-13-------------13--10--|
G|-------------------------------------------------------|
D|-------------------------------------------------------|
A|-------------------------------------------------------|
E|-------------------------------------------------------|
  • 1
  • 2
  • 3
  • 4
  • 5
  • 6
  • 7
  • 8
  • 9
  • 10
  • 11
  • 12
    Acordes para:
      Composição: Carlos Stein / David Bowie / Sady Homrich / Thedy CorrêaColaboração e revisão:
      • Matheus
      • Joanilson
      • adrianoferreira

      0 comentários

        mostrar mais comentários

        Conseguiu tocar?

        202tocaram2ainda não

        Grave um vídeo tocando O Astronauta de Mármore e mande pra gente!

        00:00 / 00:00
        outros vídeos desta música
        repetirqualidadeautomática
        • automática
        Outro vídeos desta música
          Capítulos
          • Início
          • Acordes da introdução
          • Tocando introdução
          • Ritmo
          • Acordes da primeira parte
          • Tocando primeira parte
          • Tocando passagem da primeira parte
          • Ensinando passagem da primeira parte
          • Tocando continuação da primeira parte
          • Ritmo do refrão
          • Acordes do refrão
          • Tocando refrão
          • Acordes da base do solo de violino
          • Tocando base do solo de violino
          • Ensinando base do solo de violino
          • Tocando solo inicial
          • Ensinando solo inicial
          • Encerramento
          00:00 / 00:00
          automática
          • automática
          1 versão de Tab de baixoexibiçõescontribuições
          1 versão de Tab de bateriaexibiçõescontribuições
          fecharplay/pause subir/descer velocidade
            acordes
            fechar
            OK
            Feedback