Cifra Club

Um Girassol da Cor do Seu Cabelo (Acústico)

Nenhum de Nós

Cifra: Principal (violão e guitarra)
Selo Cifra Club: esta cifra foi revisada para atender aos critérios oficiais da nossa Equipe de Qualidade.
tom: C
Intro: E
(Na introdução a palhetada é dada 'lentamente' de baixo para cima)

Am            D
Vento solar estrelas do mar 
         G      G#º          Am
A terra azul da cor do seu vestido
Am              D
Vento solar e estrelas do mar
     G      E            Am
Você ainda quer morar comigo?
        D         C         E
uuuuuuuuuuuuuuuuuuuuuuuuuuuuuuuuu
Am      D         C         E

Am            D
Vento solar estrelas do mar 
         G      G#º          Am
A terra azul da cor do seu vestido
Am              D
Vento solar e estrelas do mar
     G      E            Am
Você ainda quer morar comigo?

F        Bb             Am     E
Se eu cantar, não chore não, é só poesia 
F        Bb         Am     E
Eu só preciso ter você por mais um dia 
F     Bb          Am      E         F         Dm         F         Dm
Ainda gosto de dançar bom dia, como vai você?       como vai você?

Am     D          C       E
          ieieee
Am     D          C       E
          ieieee
Am                  D
Sol girassol, verde vento solar 
     G     G#º          Am
Você ainda quer morar comigo?
Am              D
Vento solar e estrelas do mar 
        G      E            Am
Um girassol da cor de seu cabelo 

F       Bb              Am      E
Se eu morrer, não chore não É só a lua
F       Bb          Am      E
é seu vestido cor de mar É filha nua 
F     Bb         Am    E
ainda moro nesta mesma rua 
     F     Dm
Como vai você? 
F    Dm   F              Bb
Você vem, ou será que ainda é tarde demais?

Am    D    C   E (2x)

solo
E|-------------------------------------------------------|
B|-------10-10/12/10~--10-10-12-10-10/12----10-----------|
G|--7/9-----------------------------------------7/9------|
D|-------------------------------------------------------|
A|-------------------------------------------------------|
E|-------------------------------------------------------|

E|--------------12--10----------------8/10--12---15-15-15---17-17-17...-------|
B|---10/12-13---------13--10/12/10--------------------------------------------|
G|----------------------------------------------------------------------------|
D|----------------------------------------------------------------------------|
A|----------------------------------------------------------------------------|
E|----------------------------------------------------------------------------|

E|------------------------------------------------------|
B|------------------------------------------------------|
G|----------------------------------------5-7--5-7------|
D|--------7/10--7-7-----------------5-7-----------------|
A|--7/10-------------5-3--5-3--5-7----------------------|
E|------------------------------------------------------|

E|---7-8-7---------------------------------------------------|
B|----8---8-8/9-9-9--9/10-10-10-12-13-13/15--17-17-----------|
G|-----------------------------------------------------------|
D|-----------------------------------------------------------|
A|-----------------------------------------------------------|
E|-----------------------------------------------------------|

E|--12--12--12--12-----12-----------12-13/14-------|
B|----13--13--13--13------13/14/15-----------------|
G|-------14--14--14--14----------------------------|
D|-------------------------------------------------|
A|-------------------------------------------------|
E|-------------------------------------------------|

E|------------------------------------------------------|
B|-8-8-8/9---9/10--12--13-------------------------------|
G|-9-9-9/10-10/11-12--14--------------------------------|
D|------------------------------------------------------|
A|------------------------------------------------------|
E|------------------------------------------------------|

F        Bb             Am     E
Se eu cantar, não chore não, é só poesia 
F        Bb         Am     E
Eu só preciso ter você por mais um dia 
F     Bb          Am      E         F         Dm
Ainda gosto de dançar bom dia, como vai você?    
F    Dm               Bb                   Am
Você vem, será que é tarde demais?
Outros vídeos desta música
    254.360 exibições
      • ½ Tom
      • A
      • Bb
      • B
      • C
      • Db
      • D
      • Eb
      • E
      • F
      • F#
      • G
      • Ab
    • Adicionar à lista

    Afinação da cifra

    Afinador online

      0 comentários

      Ver todos os comentários

      Entre para o Cifra Club PRO

      Tenha acesso a benefícios exclusivos no App e no Site

      • Chega de anúncios

      • Badges exclusivas

      • Mais recursos no app do Afinador

      • Atendimento Prioritário

      • Aumente seu limite de lista

      • Ajude a produzir mais conteúdo

      Cifra Club Pro

      Aproveite o Cifra Club com benefícios exclusivos e sem anúncios
      Cifra Club Pro
      Aproveite o Cifra Club com benefícios exclusivos e sem anúncios
      OK