Notificações Amigos pendentes

      Nenhum de Nós

      Julho de 83

      193.863 exibições
      Tom: G
              G        D4/F#  Em  Em/D
      Acho que era julho de   83
                  C9
      Eu sempre esqueço do dia
           D
      Mas lembro do mês
               G              D4/F#
      A gente mal se conhecia
                 Em            Em/D
      Nos vimos apenas uma vez
                     C9
      Mas foi como a fotografia 
                  D
      De um velho filme francês
                  G                   D4/F#
      Não fosse a roupa que eu vestia
                 Em           Em/D
      Naquele estilo new wave
                    C9
      Quem sabe eu conseguiria 
              D
      Chegar perto de você
      
             G            D
      Adolescência vazia
                C9
      Eu tinha quase 16
                  G           D
      Ninguém me compreendia
                      Em           A
      E eu não compreendia ninguém
      
              G          D4/F#
      Fiquei ali sentado
              Em            Em/D
      Sentado sobre as mãos
                  C9
      Pensando em te perder
            D
      Querendo te encontrar
              G                 D4/F#
      E foi então que aconteceu
              Em         Em/D
      Você me viu olhar
                C9
      E veio em minha direção
              D
      Sorrindo disse Olá
              G            D4/F#
      E neste dia começou
                 Em      Em/D
      A nossa história
               C9
      Que continua até hoje
             D
      E só parece melhorar
       
      G            D
      Adolescência vazia
              Em
      Eu tinha quase 16
                  G           D
      Ninguém me compreendia
                        C          A
      E eu não compreendia ninguém
      
      Solo:
      
      
      E|------------------------------------3--3----3--7--7--7--5--5-|
      B|-----------------------3-3---5-3-3/5----------8--8--8--7--7--|
      G|------------0-0h2-0---4-------------------4------------------|
      D|-------0-0h2-------------------------------------------------|
      A|---0h2------------------------------------------------------|
      E|3-------------------------------------------------------------|
      
                                                                  
      
      E|-------10--8-8--7h8p7----------------------------------------5-3-3---|
      B|--8\10-10--8-8----------8-8--10--5--8--8-3-------7-7---7-7---3-3-3---|
      G|---------------------------------------------------------------------|
      D|-------------------------------------------5/7-------7---------------|
      A|---------------------------------------------------------------------|
      E|---------------------------------------------------------------------|
      
              
      
      E|----------7--8-------10----10---10----10---8p7----7-5---3---|
      B|----8s10--8--10--7h8---7h8---7h8---7h8---------8-8----5-----|
      G|--7-7s9-----------------------------------------------------|
      D|------------------------------------------------------------|
      A|------------------------------------------------------------|
      E|------------------------------------------------------------|
      
      
      *******
      
      Dedilhado:
      Aqui vai os esquemas pra tocar a musica certinha...
      
      
      G       xx5430
      G/F#    xx4430
      Em      xx2030
      Em/D    xx0030
      C9      x32030
      D       xx0230
      
      A música é dedilhada nos versos e batida no refrão. Use os acordes do
      jeito mostrado acima, pois diferente soará errado... note que as 2
      últimas casas sempre estão na mesma posição: Mi solta e Si na 2º =]
      O dedilhado é este  (p i m a | m i m), mas por precaução aí vai ele tablado:
      
      O começo do dedilhado das 2 partes dos versos são tocados
      um pouco diferentes. Não é muita coisa, é bem simples:
      
      
                     G                 G/F#
      E|----------------0-----------------0----------||
      B|--------------3-----3---3-------3------------||
      D|------------4---------4-------4--------------||
      G|----------5-----------------4----------------||
      A|---------------------------------------------||
      E|---------------------------------------------||
      
         Acho que era julho...
      
      
                     Em                Em/D
      E|----------------0-----------------0----------||
      B|--------------3-----3---3-------3------------||
      D|------------0---------0-------0--------------||
      G|----------2-----------------0----------------||
      A|---------------------------------------------||
      E|---------------------------------------------||
      
         de oitenta e três...
      
      
                     C9 (uma batida)
      E|----------0------------------0----------------||
      B|----------3--------------------3--------------||
      D|----------0----------------------0------------||
      G|----------2-----------------------------------||
      A|----------3-----------------------------------||
      E|----------0-----------------------------------||
      
         eu sempre esqueço do dia..
      
      
                     G                 G/F#
      E|----------------0-----------------0----------||
      B|--------------3-----3---3-------3-----3---3--||
      D|------------4---------4-------4---------4----||
      G|----------5-----------------4----------------||
      A|---------------------------------------------||
      E|---------------------------------------------||
      
         A gente mal se conhecia
      
      
                     Em                 Em/D
      E|----------------0-----------------0----------||
      B|--------------3-----3---3-------3-----3---3--||
      D|------------0---------0-------0---------0----||
      G|----------2-----------------0----------------||
      A|---------------------------------------------||
      E|---------------------------------------------||
      
         Nos vimos apenas uma vez
      
      
                     C9
      E|----------------0-----------------0----------||
      B|--------------3-----3---3-------3-----3---3--||
      D|------------0---------0-------0---------0----||
      G|---------------------------------------------||
      A|----------3-----------------3----------------||
      E|---------------------------------------------||
      
         Mas foi como a fotografia
      
      
                     D
      E|----------------0-----------------0----------||
      B|--------------3-----3---3-------3-----3---3--||
      D|------------2---------2-------2---------2----||
      G|----------0-----------------0----------------||
      A|---------------------------------------------||
      E|---------------------------------------------||
      
         De um velho filme francês
      
      Esquema da batida: 
      baixo | baixo cima | cima baixo
        |       |   /¯\     /¯\   |
       \_/     \_/   |       |   \_/
      
      simples!
        Composição: Thedy CorrêaColaboração e revisão:
        • PrieTi
        • smool
        • Heitor
        • tavito

        Comentários 4

        140 .
        • Juliano Juliano: Em 21/08/2015 01:41

          ta errado o refrão. ao invés de ser Em (fechou em c) fica assim G, D. C, depois G, D , Em. e fecha em A, pra mim fechou isso ai.

        • ALEX ALEX: Em 27/08/2013 12:54

          adoro esse som!

        • matheusperius matheusperius: Em 10/11/2011 21:44

          Música*

        • matheusperius matheusperius: Em 10/11/2011 21:44

          Muito legal terem dado a batida da músic.Deviam fazer isso em todas.

        140 cancelar

        conseguiu tocar?

        • •••
        Paulo Junior Barretto2.957 visualizações
          ver covers de outras músicas »
          0:00 / 0:00

          Capítulos

            1 versão de violão dificuldade exibições contribuição e correção
            1 versão de guitarra dificuldade exibições contribuição e correção
            1 versão de cavaco dificuldade exibições contribuição e correção
            1 versão de teclado dificuldade exibições contribuição e correção
            1 versão de baixo exibições contribuição e correção
            play/pausefechar subir/descer velocidade
            6ª corda E5ª corda A4ª corda D3ª corda G2ª corda B1ª corda E
              acordes
              publicidade
              fechar
              ok