Cifra Club

A Gente Voltou

Clarice Falcão

Cifra: Principal
exibições 218.313
Tom: A
[Intro]
                       A                       D
E|---0----0------0----0---|---2----2------2----2---|
B|---2----2------2----2---|---3----3------3----3---|
G|---2----2------2----2---|---2----2------2----2---|
D|------------------------|-0-----------0----------|
A|-0-----------0----------|------------------------|
E|------------------------|------------------------|

                      Bm                       E                        F#m
E|---2----2------2----2---|---0----0------0----0---|---2----2------2----2---|
B|---3----3------3----3---|---0----0------0----0---|---2----2------2----2---|
G|---4----4------4----4---|---1----1------1----1---|---2----2------2----2---|
D|------------------------|------------------------|------------------------|
A|-2-----------2----------|-2-----------2----------|-4-----------4----------|
E|------------------------|------------------------|------------------------|

   A                D
Polícias abaixem as armas
             A                     D
E troquem carícias que a gente voltou
    A                    D              A
Bandidos de gorro não subam o morro, relaxem
                D
Que a gente voltou

 Bm                 E
Mas e se a gente separa
 Bm                F#m
Se a gente para e se parará
 Bm                  E
Para que se a gente para
            A
O mundo acabou

 A            D
Médicos nas UTIs
                   A
Larguem seus bisturis
                D
Que a gente voltou

    A                 D
Pacientes à beira da morte
             A
Reparem que sorte
            D
A gente voltou

 Bm                 E
Mas e se a gente separa
 Bm                    F#m
Mas se a gente para e se parará
 Bm                  E
Para que se a gente para
            A
O mundo acabou

 A                    D
Você que está no Titanic
            A
Parou o chilique
                D
Que a gente voltou

    A                D
Não entra na bad, Romeu
            A
Julieta morreu
                D
Mas a gente voltou

 Bm                 E
Mas e se a gente separa
 Bm                F#m
Se a gente para e se parará
 Bm                  E
Para que se a gente para
            A
O mundo acabou

 Bm                  E
Para que se a gente para o mundo
 A                   D
Para que se a gente para
 Bm                  E
Para que se a gente para o mundo
 A                   D
Para que se a gente para
 Bm                  E
Para que se a gente para o mundo
 A
Para

0 comentários

    mostrar mais comentários

    Conseguiu tocar?

    86tocaram2ainda não

    Grave um vídeo tocando A Gente Voltou e mande pra gente!

    00:00 / 00:00
    outros vídeos desta música
    repetirqualidadeautomática
    Outro vídeos desta música
      00:00 / 00:00
      automática
      OK