Cifra Club

Esperando Na Janela

Cogumelo Plutão

Cifra: Principal (violão e guitarra)
Selo Cifra Club: esta cifra foi revisada para atender aos critérios oficiais da nossa Equipe de Qualidade.
tom: D
[Intro] Em7  D/F#  G  A7 

[Tab - Solo Intro]

   Em7       D/F#
E|-5--7-------------------------------------|
B|------8--7--------------------------------|
G|-----------7----7-7-9-7-6-7---------------|
D|------------------------------------------|
A|------------------------------------------|
E|------------------------------------------|

    G          A7
E|-/5---------------------------------------|
B|-------8--7--5------5---------------------|
G|----------------6-7-----------------------|
D|------------------------------------------|
A|------------------------------------------|
E|------------------------------------------|

[Primeira Parte]

        D     G     A7      D2
Quando me perdi, você apareceu
      Bm11  G        A7       D2
Me fazendo rir, do que aconteceu
      F#m7   Bm11  G             D2
E de medo olhei   tudo ao meu redor
      F#m7      Bm11     G      A7     D
Só assim enxerguei que agora estou melhor

[Refrão]

            G          A7   D
Você é a escada na minha subida
           G      A7    D
Você é o amor da minha vida
                 F#m7            Bm11
É o meu abrir de olhos, o amanhecer
    Bm11/A      G   A7   D
Verdade que me leva a viver

            G    A7   D
Você é a espera na janela
               G     A7     D
A ave que vem de longe tão bela
              F#m7         Bm11
A esperança que arde em calor
   Bm11/A      G         A7    D2
Você é a tradução do que é o amor

[Segunda Parte]

     D    G          A7           D2
E a dor saiu, foi você quem me curou
          Bm11   G          A7             D2
Quando o mal partiu, vi que algo em mim mudou
      F#m7          Bm11  G            D2
No momento em que quis ficar junto de ti
    F#m7       Bm11          G     A7    D
E agora sou feliz, pois lhe tenho bem aqui

[Refrão]

            G          A7   D
Você é a escada na minha subida
           G      A7    D
Você é o amor da minha vida
                 F#m7            Bm11
É o meu abrir de olhos, o amanhecer
    Bm11/A      G   A7   D
Verdade que me leva a viver

            G    A7   D
Você é a espera na janela
               G     A7     D
A ave que vem de longe tão bela
              F#m7         Bm11
A esperança que arde em calor
   Bm11/A      G         A7    Em7
Você é a tradução do que é o amor

[Ponte]

[Tab - Ponte]

      Em7     D/F#         G      A7
E|----5--------------------5----------------|
B|-------8--7-----------------8-7-5-------5-|
G|-/7----------7--7-7---/7-----------6-7----|
D|------------------------------------------|
A|------------------------------------------|
E|------------------------------------------|

      Em7     D/F#          G     
E|----5---------------------5------10-------|
B|-------8--7------------------7-8----------|
G|-/7----------7--7-7---/7------------------|
D|------------------------------------------|
A|------------------------------------------|
E|------------------------------------------|

D/F#              G   A7              Em7
     Do que é o amor,    do que é o amor
D/F#              G
     Do que é o amor

[Refrão]

            G          A7   D
Você é a escada na minha subida
           G      A7    D
Você é o amor da minha vida
                 F#m7            Bm11
É o meu abrir de olhos, o amanhecer
    Bm11/A      G   A7   D
Verdade que me leva a viver

            G    A7   D
Você é a espera na janela
               G     A7     D
A ave que vem de longe tão bela
              F#m7         Bm11
A esperança que arde em calor
   Bm11/A      G         A7    Em7
Você é a tradução do que é o amor

[Final]

[Tab - Final]

      Em7     D/F#         G      A7
E|----5--------------------5----------------|
B|-------8--7-----------------8-7-5-------5-|
G|-/7----------7--7-7---/7-----------6-7----|
D|------------------------------------------| (x2)
A|------------------------------------------|
E|------------------------------------------|

D/F#              G   A7              Em7
     Do que é o amor,    do que é o amor
D/F#              G  A7  D
     Do que é o amor
00:00 / 00:00
Outros vídeos desta música
Repetir
Outros vídeos desta música
832.190 exibições
  • Simplificar cifra
    • ½ Tom
    • A
    • Bb
    • B
    • C
    • Db
    • D
    • Eb
    • E
    • F
    • F#
    • G
    • Ab
  • Adicionar à lista

Afinação da cifra

Afinador online

    0 comentários

    Ver todos os comentários

    Entre para o Cifra Club PRO

    Tenha acesso a benefícios exclusivos no App e no Site

    • Chega de anúncios

    • Mais recursos no app do Afinador

    • Atendimento Prioritário

    • Aumente seu limite de lista

    • Ajude a produzir mais conteúdo

    00:00 / 00:00

    Cifra Club Pro

    Aproveite o Cifra Club com benefícios exclusivos e sem anúncios
    Cifra Club Pro
    Aproveite o Cifra Club com benefícios exclusivos e sem anúncios
    OK