Cifra Club

Eu Sei

Papas da Língua

Cifra: Principal
exibições 5.064.010
Tom: G
[intro]

   C              G         Em      Bm
E|-0-0------------3---------0-------2----|
B|-1-1------------3---------0-------3----|
G|-0-0------------0---------0-------4----|
D|-2----2-0-0-----0------2--2-------4----|
A|-3----3-2-0--2--2------2--2--0h2--2----|
E|-------------3--3--3-2-0--0------------|

C   G   Em                D
Eu sei, tudo pode acontecer
C   G   Em                     D
Eu sei, nosso amor não vai morrer
Em             Bm7   C              G
Vou pedir aos céus, você aqui comigo
      Em      Bm7   C               D7 D7/4 D7
Vou jogar no mar, flores pra te encontrar

C    G      Em              D
Não sei porque você disse adeus
C    G    Em                 D
Guardei o beijo que você me deu

      Em       Bm7   C           G
Vou pedir aos céus, você aqui comigo
      Em      Bm7   C                D7 D7/4 D7
Vou jogar no mar, flores pra te encontrar
C             G       C         G
You say good-bye, and I say hello
C             G       C        D7 D7/4 D7
You say good-bye, and I say hello

   C            G
E|-0-0----------3--|
B|-1-1----------3--|
G|-0-0----------0--|
D|-2----2-0-0---0--|
A|-3----3-2-0---2--|
E|--------------3--|

C    G      Em              D
Não sei porque você disse adeus
C    G    Em                 D
Guardei o beijo que você me deu

      Em       Bm7   C           G
Vou pedir aos céus, você aqui comigo
      Em      Bm7   C                D7 D7/4 D7
Vou jogar no mar, flores pra te encontrar
C             G       C         G
You say good-bye, and I say hello
C             G       C        D7 D7/4 D7
You say good-bye, and I say hello

C*         G*         Em        Bm7
ie ie ie ie ie ie... (2x)

   C            G
E|-0-0----------3--|
B|-1-1----------3--|
G|-0-0----------0--|
D|-2----2-0-0---0--|
A|-3----3-2-0---2--|
E|--------------3--|

0 comentários

    mostrar mais comentários

    Conseguiu tocar?

    431tocaram4ainda não

    Grave um vídeo tocando Eu Sei e mande pra gente!

    00:00 / 00:00
    outros vídeos desta música
    repetirqualidadeautomática
    Outro vídeos desta música
      00:00 / 00:00
      automática
      Capítulos
      • Início
      • Acordes da introdução
      • Tocando introdução
      • Ritmo
      • Acordes da Primeira Parte
      • Tocando Primeira Parte
      • Tocando Segunda Parte
      OK