Cifra Club

Vem Pra Cá

Papas da Língua

Cifra: Principal
exibições 382.314
Tom: G
(intro) C Am7 Bm7 Em

      C      Am7       Bm7       Em
E |---------------------------------
B |---------------------------------
G |---------------------------------     (2x)
D |----0--2---0--5---7--4---0-------
A |----------------------------2----
E |---------------------------------

     C    Am7     Bm7         Em
Não ver você não tem explicação
   C   Am7    Bm7      Em
É caminhar pela escuridão
 C      Am7    Bm7           Em
Ficar afim e não poder falar
    C    Am7    Bm7           Em
Querer o sim e não se acostumar

      C    Am7         Bm7       Em
E |---------------------------------
B |---------------------------------
G |---------------------------------     (2x)
D |--0--2-5----0-7--5-4-5-4--4/5---2
A |---------------------------------
E |---------------------------------
          C              Am7
Com a solidão, o medo de amar

           Bm7           Em
Estranho vazio no seu olhar
           C              Am7
Eu tento achar em algum lugar
             Bm7             Em
O amor que você deixou pra trás

(riff 2)
E |-7-10--7-12---7-10-8-7-8-10------
B |---------------------------------
G |---------------------------------   (2x)
D |---------------------------------
A |---------------------------------
E |---------------------------------

        C  Am7         Bm7  Em         C  Am7        Bm7
Vem pra cá,   vem pra cá,    vem pra cá,  vem pra cá

(repete tudo)
Acordes para:
    Composição: Serginho MoahColaboração e revisão:

    0 comentários

      mostrar mais comentários

      Conseguiu tocar?

      41tocaram0ainda não

      Grave um vídeo tocando Vem Pra Cá e mande pra gente!

      00:00 / 00:00
      outros vídeos desta música
      repetirqualidadeautomática
      Outro vídeos desta música
        00:00 / 00:00
        automática
        OK