Cifra Club

Espelho Meu

Papas da Língua

Cifra: Principal (violão e guitarra)
Selo Cifra Club: esta cifra foi revisada para atender aos critérios oficiais da nossa Equipe de Qualidade.
tom: G
Introdução

D (deixe tocar o acorde 4x) na segunda vez o violao fica por baixo fazendo +- assim =  12-13
e na terceira vez = 21-23  

     Am       G      D         Am       G      D
E|--2-3-5--5-3-2--3-2---------2-3-5--5-3-2-5-----------|
B|--------------------3-3--------------------3---------|
G|-----------------------------------------------------|
D|-----------------------------------------------------|
A|-----------------------------------------------------|
E|-----------------------------------------------------|

     Am       G      D         Am       G      D
E|--2-3-5--5-3-2--3-2---------2-3-5--5-3-2-0-----------|
B|--------------------3-3--------------------3---------|
G|-----------------------------------------------------|
D|-----------------------------------------------------|
A|-----------------------------------------------------|
E|-----------------------------------------------------|
 
(Am G D)
Perdi os anos todos 
em cada ano mais 
um pouco da virtude 
que todo homem traz 
(Am G D)
Gastei o tempo todo 
a desprezar paixões 
do rancho imenso e fundo do orgulho 
eu fui o capataz (2x)
Em D/F# C
Ah, onde está o meu você 
Em D/F# C
Ah, onde está o meu você 
Am
sei que ninguém vai perdoar 
nem mesmo há o que perdoar 
G
é mesmo assim 
D D/C D/B Am
E desejei amanhecer em paz 
Em
em outros tempos atrás 
D D/C D/B
pedindo a Deus que para amar 
Am Em D D/C D/B Am
não fosse tarde demais 
G F C
Ah, espelho meu 
G F C
Ah , existe alguém  
D# F G
mais triste do que eu 

(Solo igual à introdução)
 
Sonhei os sonhos todos 
Imaginando o céu 
e dele fui seu prisioneiro 
em cela de papel (2x)
 
Joguei o jogo de jogar 
com a e i o u 
e penetrei naquelas almas 
olhos de Capitu (2x)
00:00 / 00:00
Outros vídeos desta música
Repetir
Outros vídeos desta música
70.724 exibições
    • ½ Tom
    • A
    • Bb
    • B
    • C
    • Db
    • D
    • Eb
    • E
    • F
    • F#
    • G
    • Ab
  • Adicionar à lista

Afinação da cifra

Afinador online

    0 comentários

    Ver todos os comentários

    Entre para o Cifra Club PRO

    Tenha acesso a benefícios exclusivos no App e no Site

    • Chega de anúncios

    • Mais recursos no app do Afinador

    • Atendimento Prioritário

    • Aumente seu limite de lista

    • Ajude a produzir mais conteúdo

    00:00 / 00:00

    Cifra Club Pro

    Aproveite o Cifra Club com benefícios exclusivos e sem anúncios
    Cifra Club Pro
    Aproveite o Cifra Club com benefícios exclusivos e sem anúncios
    OK