Enviar cifraEntrar

Godfathers Lollipop

Coheed And Cambria

Cifra: Principal
exibições 493
Tom: C
This was a song back when Coheed was known as Shabutie

Tabbed By: A Darker Breed
E-mail: ADarkerB* 

Intro/Verse

e|--------------------------|
B|--------------------------|
G|--------------------------|
D|6--6--6/7\6-4-------2-4-2-|
A|4--4--4--------2-2-4------|
D|--------------------------|

  Let the chords ring
Pre-Bridge

e|------9-9-9--------8-8--|
B|------9-9-9--------8-8--|
G|------9-9-9--------8-8--|
D|------------------------|
A|55-55--------55-55------|
D|55-55--------55-55------|

        + + +        + +   
Bridge

e|------------------------------|
B|------------------------------|
G|------------------------------|
D|------4---4-------------------|
A|------------------------------|
D|0h3h4---4---0h3h4-3h4-3h4-3h4-|


e|----------------------------|
B|----------------------------|
G|----------------------------|
D|----------------------------|
A|3-x-0-x-3-x-0-x-3-x-0-3-3/4-|
D|3-x-0-x-3-x-0-x-3-x-0-3-3/4-|


e|--------------------------------|
B|--------------------------------|
G|----------------------5-------5-|
D|--4-----4-----4-----6--------6--|
A|3---2-3---2-3---2---------------|
D|3-----3-----3-------------------|

                

e|----------------|
B|----------------|
G|----------------|
D|-5-5-5-5-5-5----|
A|-3-3-3-3-3-3--2-|
D|-3-3-3-3-3-3--2-|

   + + + + + +  Let Ring
Bridge 2

e|--------------------------------|
B|--------------------------------|
G|--------------------------------|
D|--------------------------------|
A|4-44444-5-55555-4-44444-5-55555-|
D|4-44444-5-55555-4-44444-5-55555-|


Bridge 3

e|---------------------------|
B|---------------------------|
G|---------------------------|
D|---------------------------|
A|7777-7/1010101010-33333333-|
D|7777-7/1010101010-33333333-|


Bridge 3 pt 2

e|--------------------------------|
B|--------------------------------|
G|--------------------------------|
D|--------------------------------|
A|3/77777-7/10101010-10\333333333-|
D|3/77777-7/10101010-10\333333333-|

pm  .....   . . . .  . ..... ....
Outro 

e|----------------------------|
B|----------------------------|
G|----------------------------|
D|-------555555--------666666-|
A|666666-333333-333333-444444-|
D|666666--------333333--------|

pm                ..
Outro bridge

e|----------------------------------------------------------|
B|----------------------------------------------------------|
G|88888888888888-------------88888888888--------------------|
D|xxxxxxxxxxxxxx-------------xxxxxxxxxxx--------------------|
A|66666666666666-9-9-9-4-4-4-66666666666-999888-9-9-9-4-4-4-|
D|---------------9-9-9-4-4-4-------------999888-9-9-9-4-4-4-|


Outro 2

e|---------------------------|
B|---------------------------|
G|---------------------------|
D|--------------------777777-|
A|777777-111111-11-44-555555-|
D|777777-111111-11-44--------|


End on
e|--|
B|--|
G|--|
D|7-|
A|7-|
D|7-|
  • 1
  • 2
  • 3
  • 4
  • 5
  • 6
  • 7
  • 8
  • 9
  • 10
  • 11
  • 12
    Acordes para:

      0 comentários

        mostrar mais comentários

        Conseguiu tocar?

        0tocaram0ainda não

        Grave um vídeo tocando Godfathers Lollipop e mande pra gente!

        00:00 / 00:00
        outros vídeos desta música
        repetirqualidadeautomática
        • automática
        Outro vídeos desta música
          00:00 / 00:00
          automática
          • automática
          Acordes para:violão e guitarra
          dificuldadeexibiçõescontribuições
          fecharplay/pause subir/descer velocidade
            Acordes para:violão e guitarra
            acordes
            fechar
            OK