Cifra Club

Shadows Of Our Past

Daiki Kasho

Cifra: Principal (violão e guitarra)
Selo Cifra Club: esta cifra foi revisada para atender aos critérios oficiais da nossa Equipe de Qualidade.
tom: D
E|---------------------------------------------|
B|---------------------------------------------|
G|----------5-4-----2-4-----5-4-----2----------|
D|-2--2-2-2-----2-2-----2-2-----2-2------------|
A|-2--2-2-2-----2-2-----2-2-----2-2------------|
E|-0--0-0-0-----0-0-----0-0-----0-0------------|

E|--------------------------------------------------|
B|--------------------------------------------------|
G|-4-0--0-0-5-4--0-0-2-0-2-4-0--0-0-5-4--0-0-2-0-2--|
D|--------------------------------------------------|
A|--------------------------------------------------|
E|--------------------------------------------------|

E|---------------------------------------------|
B|---------------------------------------------|
G|----------5-4-----2-4-----5-4-----2----------|
D|-2--2-2-2-----2-2-----2-2-----2-2------------|
A|-2--2-2-2-----2-2-----2-2-----2-2------------|
E|-0--0-0-0-----0-0-----0-0-----0-0------------|

E|--------------------------------------------------|
B|--------------------------------------------------|
G|-4-0--0-0-5-4--0-0-2-0-2-4-0--0-0-7-4--0-0-2-0-2--|
D|--------------------------------------------------|
A|--------------------------------------------------|
E|--------------------------------------------------|

[Verse]

E|---------------------------------------------|
B|---------------------------------------------|
G|---------------------------------------------|
D|-x-2-2-4-5-2-2-4-5-2-2-4-5-2-2-4-------------|
A|-x-2-2-----2-2-----2-2-----2-2---------------|
E|-x-0-0-----0-0-----0-0-----0-0---------------|

E|--------------------------------------------------|
B|--------------------------------------------------|
G|---2-2-----2-2------------------------------------|
D|-5-2-2-4-5-2-2-4-5-5-5-4-5-5-5-5\3-5--------------|
A|---0-0-----0-0-----5-5-----5-5-5\3-5--------------|
E|-------------------3-3-----3-3-3\1-3--------------|

[Chorus]

E|--------------------------------------------------|
B|--------------------------------------------------|
G|-----7------------7-------------------------------|
D|-7---7---2----5---7--2-x-x/5-x-x\2-x-x/5----------|
A|-7---5---2----5---5--2-x-x/5-x-x\2-x-x/5----------|
E|-5-------0----3------0-x-x/3-x-x\0-x-x/3----------|
Outros vídeos desta música
    13 exibições
      • ½ Tom
      • A
      • Bb
      • B
      • C
      • Db
      • D
      • Eb
      • E
      • F
      • F#
      • G
      • Ab
    • Adicionar à lista

    Afinação da cifra

    Afinador online

      0 comentários

      Ver todos os comentários

      Conseguiu tocar?

      0Tocaram0Ainda não

      Grave um vídeo tocando Shadows Of Our Past e nos envie!

      Toque também

      1. Imagem do artista Dakota StarTogether Alone Dakota Star
      2. Imagem do artista Dakota StarSay Goodbye Dakota Star

      Entre para o Cifra Club PRO

      Tenha acesso a benefícios exclusivos no App e no Site

      • Chega de anúncios

      • Badges exclusivas

      • Mais recursos no app do Afinador

      • Atendimento Prioritário

      • Aumente seu limite de lista

      • Ajude a produzir mais conteúdo

      Cifra Club Pro

      Aproveite o Cifra Club com benefícios exclusivos e sem anúncios
      Cifra Club Pro
      Aproveite o Cifra Club com benefícios exclusivos e sem anúncios
      Ops (: Contenido disponible sólo en portugués.
      OK