Cifra Club

Soul On Display

Daiki Kasho

Cifra: Principal (violão e guitarra)
Selo Cifra Club: esta cifra foi revisada para atender aos critérios oficiais da nossa Equipe de Qualidade.
tom: C
E|------------------------------|
B|-3/5~---5-5-5--5~---5-5~--x---|
G|-3/5~---5-5-5--5~---5-5~--5---|
D|-5/7~---7-7-7--7~---7-7~--7---|
A|------------------------------|
E|------------------------------|

Guitar 2 (Clean)

E|------------------------------|
B|-5-ho| ld-5---------------------|
G|---5h7----7-5-----------------| x2
D|--------------7---------------|
A|------------------------------|
E|------------------------------|
Outros vídeos desta música
    5 exibições
      • ½ Tom
      • A
      • Bb
      • B
      • C
      • Db
      • D
      • Eb
      • E
      • F
      • F#
      • G
      • Ab
    • Adicionar à lista

    Afinação da cifra

    Afinador online

      0 comentários

      Ver todos os comentários

      Entre para o Cifra Club PRO

      Tenha acesso a benefícios exclusivos no App e no Site

      • Chega de anúncios

      • Badges exclusivas

      • Mais recursos no app do Afinador

      • Atendimento Prioritário

      • Aumente seu limite de lista

      • Ajude a produzir mais conteúdo

      Cifra Club Pro

      Aproveite o Cifra Club com benefícios exclusivos e sem anúncios
      Cifra Club Pro
      Aproveite o Cifra Club com benefícios exclusivos e sem anúncios
      Ops (: Contenido disponible sólo en portugués.
      OK