Cifra Club

La danza de los mirlos

Damas Gratis

Cifra: Principal (violão e guitarra)
tom: Dm

E|-----------------------------------------------------------------------------------------------------|
B|------------------------------------------------3--5--5--5--5--5--3--5-----3--5--5--5--5--5--3--5----|
G|------------------------------------------------------------------------4--------------------------4-|
D|--0--0--0--0--3--5--7--7--7--7--2--5--[x4]--0--------------------------------------------------------|
A|-----------------------------------------------------------------------------------------------------|
E|-----------------------------------------------------------------------------------------------------|

E|--------------------------------------------------|------------------------------|
B|--3--5--5--5--5--8--7--6--5--3--4--5--3-----------|------------------------------|
G|-----------------------------------------4--[x3]--|-| empezar todo de nuevo--------
D|--------------------------------------------------|------------------------------|
A|--------------------------------------------------|------------------------------|
E|--------------------------------------------------|------------------------------|

E|--------------------------------------|
B|-5--6--7--8--8--8--8--5--7------------|
G|----------------------------6-[x4]----|
D|--------------------------------------|
A|--------------------------------------|
E|--------------------------------------|

E|------------------------------------------------------------------------------------------------------|
B|-----1-----------------0--3------------1----------------0--3-----------1----------------0--3----------|
G|--2----2--0--0--0--0--------2--2--2--2----2--0--0--0--0------2--2----2----2--0--0--0--0------2--2--2--|
D|------------------------------------------------------------------------------------------------------|
A|------------------------------------------------------------------------------------------------------|
E|------------------------------------------------------------------------------------------------------|

E|----------------------------------------------------------|
B|-----1-----------------0--3--3-| >4->5->6->7->8->9->10->11--|
G|--2----2--0--0--0--0--------------------------------------|
D|----------------------------------------------------------|
A|----------------------------------------------------------|
E|----------------------------------------------------------|
00:00 / 00:00
Outros vídeos desta música
Repetir
Outros vídeos desta música
Compositor não encontrado.
74 exibições
    • ½ Tom
    • Am
    • Bbm
    • Bm
    • Cm
    • C#m
    • Dm
    • Ebm
    • Em
    • Fm
    • F#m
    • Gm
    • G#m
  • Adicionar à lista

    0 comentários

    Ver todos os comentários

    Conseguiu tocar?

    0 Tocaram 0 Ainda não

    Grave um vídeo tocando La danza de los mirlos e nos envie!

    Toque também

    1. Imagem do artista Gilda Se Me Ha Perdido Un Corazon Gilda
    2. Imagem do artista Rafaga Una Cerveza Rafaga
    3. Imagem do artista Amar Azul Yo tomo licor Amar Azul
    4. Imagem do artista El Original Ella no duerme El Original

    Entre para oCifra Club PRO

    Tenha acesso a benefícios exclusivos no App e no Site

    • Chega de anúncios

    • Prioridade de compra em lançamentos

    • Mais recursos no app do Afinador

    • Atendimento Prioritário

    • Descontos nos produtos Cifra Club

    • Ajude a produzir mais conteúdo

    00:00 / 00:00

    Cifra Club Pro

    Aproveite o Cifra Club com benefícios exclusivos e sem anúncios
    Cifra Club Pro
    Aproveite o Cifra Club com benefícios exclusivos e sem anúncios
    OK