Cifra Club

L'homme Pressé

Noir Désir

Cifra: Principal (violão e guitarra)
tom: C
Le riff du couplet: E|-8-5---5--    
                    B|-----8---8

Le riff ne se joue que dans les aigus.

Sinon, il faut tout jouer en barré sur les 3 cordes graves
Intro en A.

             A
   J'SUIS UN MANNEQUIN GLACE, AVEC UN TEINT DE SOLEIL
RAVALE, HOMME PRESSE, MES CONNERIES PROFEREES
SONT LE DESTIN DU MONDE, ET JE N'AI PAS LE TEMPS JE FILE
MA CARRIERE EST EN JEU, JE SUIS L'HOMME MEDIATIQUE
JE SUIS PLUS QUE POLITIQUE, ET JE VAIS VITE, TRES VITE
J'SUIS UNE COMETE HUMAINE UNIVERSELLE

      D
JE TRAVERSE LE TEMPS, JE SUIS UNE REFERENCE
JE SUIS OMNIPRESENT, JE DEVIENT OMNISCIENT
       A
J'AI ENVAHI LE MONDE, QUE JE NE CONNAIS PAS
PEU IMPORTE J'EN PARLE, PEU IMPORTE JE SAIS
J'AI LES HOMMES A MES PIEDS, HUIT MILLIARDS POTENTIELS
DE CRETINS ASSERVIS, A PART CERTAINS DE MES AMIS
        G                        F
DU MEME MONDE QUE MOI, VOUS N'IMAGINEZ PAS
               A
CE QU'ILS SONT GAIS

A           C
QUI VEUT DE MOI
        G                A
ET DES MIETTES DE MON CERVEAU
A           C
QUI VEUT ENTRER
        G               A 
DANS LA TOILE DE MON RESEAU

    A
MILITANT QUOTIDIEN, DE L'INHUMANITE
DES PROFITS IMMEDIATS, DES FAVEURS DES MEDIAS
MOI JE SUIS RICHE, TRES RICHE, J'FAIS DANS L'IMMOBILIER
JE SAIS FAIRE DES AFFAIRES, Y'EN A QUI PEUVENT PAYER
          D
J'CONNAIS LE TOUT PARIS, ET PUIS LE RESTE AUSSI
MES CONNAISSANCES UNIQUES
                         A
ET LEURS FEMMES QUE JE... FREQUENTE EVIDEMMENT

    A
LES CORDONS DE LA BOURSE, SE RELACHENT POUR MOI
IL N'Y A PLUS DE SECRETS, JE SUIS LE ROI DES ROIS
EXPLOSE L'AUDIMAT, PULVERISEE L'AUDIENCE
ET QU'EST-CE QUE VOUS CROYEZ, C'EST MA VOIE C'EST MA CHANCE
   D
J'ADORE LES EMISSIONS, A LA TELEVISION
PAS LE TEMPS D'REGARDER, MAIS C'EST MOI QUI LES FAIS
   A
ON CRACHE LA NOURRITURE, A CES YEUX AFFAMES
VOUS VOYEZ QU'ILS DEMANDENT, NOUS LES SAVONS AVIDES
         G                      F
DE NOTRE POURRITURE, MIEUX QUE D'LA CONFITURE
         A
A DES COCHONS

A           C
QUI VEUT DE MOI
        G                 A
ET DES MIETTES DE MON CERVEAU
A           C
QUI VEUT ENTRER
         G              A 
DANS LA TOILE DE MON RESEAU

                                       G
VOUS SAVEZ QUE JE SUIS... UN HOMME PRESSE
             D                A
UN HOMME PRESSE, UN HOMME PRESSE
                     G                D                A
JE SUIS UN HOMME PRESSE, UN HOMME PRESSE, UN HOMME PRESSE
           
           A
JE SUIS UN MILITANT QUOTIDIEN DE L'INHUMANITE
             C
ET PUIS DES PROFITS IMMEDIATS, ET PUIS DES FAVEURS DES MEDIAS
            G
MOI JE SUIS RICHE, TRES RICHE, J'FAIS DANS L'IMMOBILIER
   A
JE SAIS FAIRE DES AFFAIRES, Y'EN A QUI PEUVENT PAYER
           A
ET PUIS JE TRAVERSE LE TEMPS, JE SUIS DEVENU OMNIPRESENT
            B
JE SUIS UNE SUPER REFERENCE, JE PEUX TOUJOURS RAM'NER MA SCIENCE
            C                   D
MOI JE VAIS VITE, TRES VITE, MA CARRIERE EST EN JEU
   A
JE SUIS L'HOMME MEDIATIQUE, MOI JE SUIS PLUS QUE POLITIQUE

       A                 G                D                A
CAR JE SUIS UN HOMME PRESSE, UN HOMME PRESSE, UN HOMME PRESSE
                     G                D                A
JE SUIS UN HOMME PRESSE, UN HOMME PRESSE, UN HOMME PRESSE

           A
JE SUIS UN MILITANT QUOTIDIEN DE L'INHUMANITE
            C
ET PUIS DES PROFITS IMMEDIATS, ET PUIS DES FAVEURS DES MEDIAS
            G
MOI JE SUIS RICHE, TRES RICHE, J'FAIS DANS L'IMMOBILIER
   A
JE SAIS FAIRE DES AFFAIRES, Y'EN A QUI PEUVENT PAYER

A                             C
LOVE LOVE LOVE, DIT-ON EN AMERIQUE
                        G
LIOUBOV, RUSSIE EX-SOVIETIQUE
                             A
AMOUR, AUX QUATRES COINS DE FRANCE

--------------

Intro

|----8-5--3-5--3--8-5--3-5--3--8-5--3-5--3--8-5--3-5--3----
|----------------------------------------------------------
|----------------------------------------------------------
|----------------------------------------------------------
|----------------------------------------------------------
|----------------------------------------------------------

|----------------------------------------------------------
|----------------------------------------------------------
|----------------------------------------------------------
|----------------------------------------------------------
|----------------------------------------------------------
|----------------------------------------------------------
 

|----8-5--3-5--3--8-5--3-5--3--8-5--3-5--3--8-5--3-5--3----
|----------------------------------------------------------
|----------------------------------------------------------
|----------------------------------------------------------
|----------------------------------------------------------
|----------------------------------------------------------
| pm--- ----- ----- ----- ----- -----
|----------------------------------------------------------
|----------------------------------------------------------
|----------------------------------------------------------
|----7--7-7-7--7-7-7--7-7-7-5--7--7-7-7--7-7-7--7-7-7-5----
|----7--7-7-7--7-7-7--7-7-7-5--7--7-7-7--7-7-7--7-7-7-5----
|----5--5-5-5--5-5-5--5-5-5-3--5--5-5-5--5-5-5--5-5-5-3----

Le riff ci-dessus est répété pendant tous les couplet de la chanson et la guitare 2

alterne avec le riff suivant après: J'ai envahit le monde........

Je connais le tout Paris.....

J'adore les emmissions.......

|----------------------------------------------------------
|----------------------------------------------------------
|----7--7-7-7--7-7-7--7-7-7-5--7--7-7-7--7-7-7--7-7-7-5----
|----7--7-7-7--7-7-7--7-7-7-5--7--7-7-7--7-7-7--7-7-7-5----
|----5--5-5-5--5-5-5--5-5-5-3--5--5-5-5--5-5-5--5-5-5-3----
|----------------------------------------------------------
  
Refrain, pont et couplets de fin

|----------------------------------------------------------
|----------------------------------------------------------
|----------------------------------------------------------
|---7--------10---------5---------7------------------------
|---7--------10---------5---------7------------------------
|---5---------8---------3---------5------------------------
00:00 / 00:00
Outros vídeos desta música
Repetir
Outros vídeos desta música
Composição de Bertrand Cantat
Colaboração e revisão:
  • Nicolle Vargas
1.615 exibições
    • ½ Tom
    • A
    • Bb
    • B
    • C
    • Db
    • D
    • Eb
    • E
    • F
    • F#
    • G
    • Ab
  • Adicionar à lista

    0 comentários

    Ver todos os comentários

    Conseguiu tocar?

    0 Tocaram 0 Ainda não

    Grave um vídeo tocando L'homme Pressé e nos envie!

    Entre para oCifra Club PRO

    Tenha acesso a benefícios exclusivos no App e no Site

    • Chega de anúncios

    • Prioridade de compra em lançamentos

    • Mais recursos no app do Afinador

    • Atendimento Prioritário

    • Descontos nos produtos Cifra Club

    • Ajude a produzir mais conteúdo

    00:00 / 00:00

    Cifra Club Pro

    Aproveite o Cifra Club com benefícios exclusivos e sem anúncios
    Cifra Club Pro
    Aproveite o Cifra Club com benefícios exclusivos e sem anúncios
    OK