Cifra Club

Vuol Dire Amare

Massimo Di Cataldo

Cifra: Principal (violão e guitarra)
Selo Cifra Club: esta cifra foi revisada para atender aos critérios oficiais da nossa Equipe de Qualidade.
tom: G
[Intro]
E|-------------------------|-----------------------|
B|---0-1-3-3-1-0-----------|---0-1-3-3-1-0---------|
G|-0-------------2-0-2/4-4-|-0-------------2-0---0-| x2
D|-------------------------|-------------------4---|
A|-------------------------|-----------------------|
E|-------------------------|-----------------------|

[Verse]
 Em7  D  G
  Sono qui
       C    Em7     D
che sto pensando a te
        C  D    G
e mi domando cos'è
       Am    Em7         D
quest'ansia che c'è in me
       G               C
innamorarsi come è speciale
           Am    G      D
questa emozione così normale
        G               C
e ritrovare ad un crocevia
           Am     G      D
la storia tua la storia mia

[Chorus]
           C  D     G         C
Vuol dire amare se parlo con te
       Am    D       G
e non so nemmeno perché
           C  D      G        C         Am     D       G
vuol dire amare se questo silenzio mi parla ancora di te

[Instrumental]
E|-------------------------|-----------------------|
B|---0-1-3-3-1-0-----------|---0-1-3-3-1-0---------|
G|-0-------------2-0-2/4-4-|-0-------------2-0---0-| x2
D|-------------------------|-------------------4---|
A|-------------------------|-----------------------|
E|-------------------------|-----------------------|

[Verse]
 Em7  D  G
Dormi già
       C    Em7     D
sarò accanto a te
           C  D    G
magari tu neanche sai
       Am    Em7    D
che cosa sei per me
       G               C
cosě lontano, ma quasi vicino
           Am    G      D
che questa notte č già mattino
        G               C
vorrei spiegarti senza parole
           Am     G      D
questa emozione così speciale

[Chorus]
           C  D     G         C
Vuol dire amare se parlo con te
       Am    D       G
e non so nemmeno perché
           C  D      G        C         Am     D       G
vuol dire amare se questo silenzio mi parla ancora di te

[Bridge]
      Bm                     C
Dolcemente ferma nella mia mente
                   Em                  C
adesso e sempre sarai ogni momento di piů
         Bm                       C                   D
come un sogno che si avvera per sempre non ti lascerò mai

oh mai.....

 Em  D     G        C  Em  D  G
   ...se parlo con te

           Em  D     G        C         Am     D       G
Vuol dire amare se questo silenzio mi parla ancora di te

[Outro]
E|-------------------------|-----------------------|
B|---0-1-3-3-1-0-----------|---0-1-3-3-1-0---------|
G|-0-------------2-0-2/4-4-|-0-------------2-0---0-| x2
D|-------------------------|-------------------4---|
A|-------------------------|-----------------------|
E|-------------------------|-----------------------|
Outros vídeos desta música
4 exibições
    • ½ Tom
    • A
    • Bb
    • B
    • C
    • Db
    • D
    • Eb
    • E
    • F
    • F#
    • G
    • Ab
  • Adicionar à lista

Afinação da cifra

Afinador online

    0 comentários

    Ver todos os comentários

    Entre para o Cifra Club PRO

    Tenha acesso a benefícios exclusivos no App e no Site

    • Chega de anúncios

    • Mais recursos no app do Afinador

    • Atendimento Prioritário

    • Aumente seu limite de lista

    • Ajude a produzir mais conteúdo

    Cifra Club Pro

    Aproveite o Cifra Club com benefícios exclusivos e sem anúncios
    Cifra Club Pro
    Aproveite o Cifra Club com benefícios exclusivos e sem anúncios
    OK