Cifra Club

Aprenda

Decadence

Disturbed

Tab de baixo: Principal
intro after guitar intro

|-----------------------------------|-----------------------------------|
|-----------------------------------|-----------------------------------|
|---------------5--------3-------2--|---------------5--------3-------5--|
|--3-2-0-2-0-2-----2-0-2---2-0-2----|--3-2-0-2-0-2-----2-0-2---2-0-2----| x4

verse


|--------------------------------|-------------------------------|
|--------------------------------|-------------------------------|
|--------------------------------|-------------------------------|
|--222-0-2-0-2-222-0-2-0-2-3-2-0-|-222-0-2-0-2-222-0-2-0-2-3-2-0-|

|--------------------------------|-------------------------------|
|--------------------------------|-------------------------------|
|--------------------------------|-------------5-------3-------5-|
|--222-0-2-0-2-222-0-2-0-2-3-2-0-|-222-0-2-0-2---2-0-2---2-0-2-5-|

chorus
                         x3
|------------------------|-------------------------------------|
|------------------------|-------------------------------------|
|-----------3--3--3------|-------------------3-3-3-3-3---------|
|--2--2--2-----------4-4-|--2--2--2--0-0-0---------------------|


Post-chorus

|-----------------------------------|-----------------------------------|
|-----------------------------------|-----------------------------------|
|---------------5--------3-------2--|---------------5--------3-------5--|
|--3-2-0-2-0-2-----2-0-2---2-0-2----|--3-2-0-2-0-2-----2-0-2---2-0-2----|x2

Verse x2

chorus

bridge

|-------------------------------------------------|
|-------------------------------------------------|
|-------------------------------------------------|
|--14\2-3-2-x-2-3-2-2-2-14\2-3-2-7-8-7-x-3-3------| x4

|-------------------------------------------------|
|-------------------------------------------------|
|-------------------------------------------------|
|--14\2-3-2-x-2-3-2-2-2-14\2-3-2-7-8-7-x-10-10----|

chorus

outro

|-----------------------------------|-----------------------------------|
|-----------------------------------|-----------------------------------|
|---------------5--------3-------2--|---------------5--------3-------5--|
|--3-2-0-2-0-2-----2-0-2---2-0-2----|--3-2-0-2-0-2-----2-0-2---2-0-2----| x4
Composição de Disturbed
7.606 exibições

0 comentários

Mostrar mais comentários

Conseguiu tocar?

0 Tocaram 0 Ainda não

Grave um vídeo tocando Decadence e mande pra gente!

00:00 / 00:00
outros vídeos desta música
repetir qualidade Automático
Outros vídeos desta música
00:00 / 00:00
Automático
OK