Cifra Club

Aprenda

Nesta Rua

Domínio Público

Cifra: Principal (violão e guitarra)
Tom: E
                                                                       
E||------------0---------|-------0--------------|----------------------|
B||--0----0----0---------|--0--------------0----|--3----1----0---------|
G||------------0----0----|----------------------|----------------------|
D||------------2---------|------------2---------|-----------------1----|
A||------------2---------|----------------------|----------------------|
E||------------0---------|----------------------|------------2---------|


                                                                     
----------------------|------------2----2----|----------------------|
----------------------|--0----0--------------|--4----0----1----0----|
--2--------------2----|----------------------|----------------------|
-------1---------1----|----------------------|----------------------|
------------2---------|------------0---------|----------------------|
----------------------|----------------------|------------2---------|


                                                                     
--3----2----0---------|----------------------|------------0----0----|
-----------------0----|-------0---------0----|--0----0--------------|
----------------------|--0--------------2----|----------------------|
--1---------2---------|----------------------|----------------------|
----------------------|----------------------|----------------------|
----------------------|------------0---------|------------3---------|


                                                                     
--3----2----0---------|----------------------|----------------------|
-----------------3----|--1----0----3---------|-----------------0----|
----------------------|----------------------|--2---------2---------|
----------------------|-----------------2----|------------2---------|
----------------------|------------0---------|-------3--------------|
------------4---------|----------------------|----------------------|


                                                                     
-----------------2----|----------------------|----------------------|
-------0----0---------|--4----0--------------|----------------------|
--3-------------------|------------2----0----|----------------------|
----------------------|----------------------|--4----2--------------|
-------2--------------|----------------------|------------1h---2----|
----------------------|-------2--------------|-------0--------------|


                         
-------------||--12----||
-------------||--12----||
------------*||--12----||
------------*||--------||
-------------||--------||
--3----0-----||--------||
Composição de Desconhecido
Colaboração e revisão:
  • Ednaldo Souza
3.607 exibições
    • ½ Tom
    • A
    • Bb
    • B
    • C
    • Db
    • D
    • Eb
    • E
    • F
    • F#
    • G
    • Ab
  • Adicionar à lista

    0 comentários

    Mostrar mais comentários

    Conseguiu tocar?

    0 Tocaram 0 Ainda não

    Grave um vídeo tocando Nesta Rua e mande pra gente!

    00:00 / 00:00
    outros vídeos desta música
    repetir qualidade Automático
    Outros vídeos desta música
    00:00 / 00:00
    Automático

    Cifra Club Pro

    Aproveite o Cifra Club com benefícios exclusivos e sem anúncios
    Cifra Club Pro
    Aproveite o Cifra Club com benefícios exclusivos e sem anúncios
    OK