Cifra Club

Coração

Dorgival Dantas

Cifra: Tablatura-instrumental (violão e guitarra)
Selo Cifra Club: esta cifra foi revisada para atender aos critérios oficiais da nossa Equipe de Qualidade.
tom: E
[intro]

e|---------------------------------|--------------------------|
d|---------------------------------|--------------------------|
g|---------------------------------|--------------------------|
d|------7-7--9-9-9-9-9-7-9b11r9-7--|------7-7--9-9-9-9-9-7----|
a|--7/9----------------------------|--7/9------------------9--|
e|---------------------------------|--------------------------|

Coração para que se apaixonou, por alguém que nunca te amou

e|--------------------------|----------------------------|
d|--------------------------|----------------------------|
g|--------------------------|----------------------------|
d|------7-7--9-9-9-9-9-7-9--|--9/11-9--7-7-7-7-7-9-9/11--|
a|--7/9---------------------|----------------------------|
e|--------------------------|----------------------------|

Alguém que nunca vai te amar, eu vou fazer promessa

e|---------------------|-----------------|
d|---------------------|-----------------|
g|----6----------------|-----------------|
d|--7---9-9-9-9-9-7----|--------7---7-7--|
a|------------------9--|--9-9-9---9------|
e|---------------------|-----------------|

 para nunca mais amar, alguém que só quis me ver sofrer

e|-----------------|----------------------------|
d|-----------------|----------------------------|
g|-----------------|----------------------------|
d|--9-9-9-9-9-7-9--|--9/11-9--7-7-7-7-7-9-9/11--|
a|-----------------|----------------------------|
e|-----------------|----------------------------|

Alguém que só quis me ver chorar

e|---------------------|
d|---------------------|
g|----6----------------|
d|--7---9-9-9-9-9-7----|
a|------------------9--|
e|---------------------|

Mas eu preciso sair dessa, dessa de me apaixonar

e|-----------------|-----------------|
d|-----------------|-----------------|
g|-----------------|-----------------|
d|--------7---7-7--|--9-9-9-9-9-7-9--|
a|--9-9-9---9------|-----------------|
e|-----------------|-----------------|

Por quem so quer me fazer sofrer, por quem so quer me fazer chorar

e|----------------------------|---------------------|
d|----------------------------|---------------------|
g|--------------------9-------|----6----------------|
d|--9/11-9--7-7-7-7-7---9/11--|--7---9-9-9-9-9-7----|
a|----------------------------|------------------9--|
e|----------------------------|---------------------|

Mas é tão ruim quando alguem machuca agente

e|-----------------------------|
d|------7----------------------|
g|--7/9---7/9-7-7-7-7-7-6-7-6--|
d|-----------------------------|
a|-----------------------------|
e|-----------------------------|

O coração fica doente, sem jeito ate pra conversar

e|-------------------------|-------------------|
d|-------------------------|-------------------|
g|-------------------------|-------------------|
d|----7-7-7---7-9-9/11-11--|--7-9-9-9-9-9-7----|
a|--9-------9--------------|----------------9--|
e|-------------------------|-------------------|

Dói demais só quem ama sabe e sente

e|-----------------------------|
d|------7----------------------|
g|--7/9---7/9-7-7-7-7-7-6-7-6--|
d|-----------------------------|
a|-----------------------------|
e|-----------------------------|

O que se passa em nossa mente, na hora de deixar pra traz

e|-------------------------|-------------------|
d|-------------------------|-------------------|
g|-------------------------|-------------------|
d|----7-7-7---7-9-9/11-11--|--7-9-9-9-9-9-7----|
a|--9-------9--------------|----------------9--|
e|-------------------------|-------------------|

Nunca mais eu vou provar do seu carinho

e|------------------------------------|
d|------------------------------------|
g|-----------------------7/9----------|
d|------7-7--7-9-9-9-9-9------11p9-7--|
a|--7/9-------------------------------|
e|------------------------------------|

Nunca mais eu vou poder te abraçar

e|----------------------------|
d|----------------------------|
g|----------------------------|
d|------7-7--7-9-9-9-9-9-7----|
a|--7/9--------------------9--|
e|----------------------------|

Ou será que vou viver melhor sozinho

e|------------------------------------|
d|------------------------------------|
g|-----------------------7/9----------|
d|------7-7--7-9-9-9-9-9------11p9-7--|
a|--7/9-------------------------------|
e|------------------------------------|

E se for mais fácil pra me perdoar

e|----------------------------|
d|----------------------------|
g|----------------------------|
d|------7-7--7-9-9-9-9-9-7----|
a|--7/9--------------------9--|
e|----------------------------|

Mas o amor as vezes só confunde a gente, não sei

e|------------------------------|-----------|
d|----6/7-----------------------|--6/7------|
g|--------9-6-7-7-7-7-7-6-7-----|------9----|
d|--7------------------------7--|-----------|
a|------------------------------|-----------|
e|------------------------------|-----------|

Se com você é diferente, o amor

e|-----------------------|----------|
d|-----------------------|--6/7-----|
g|--6-6-7-7-7-7-7-6-7----|-------9--|
d|--------------------7--|----------|
a|-----------------------|----------|
e|-----------------------|----------|

Mas as vezes só confunde agente, não sei

e|-----------------------|----------|
d|-----------------------|--6/7-----|
g|--6-6-7-7-7-7-7-6-7----|-------9--|
d|--------------------7--|----------|
a|-----------------------|----------|
e|-----------------------|----------|

Se com você pode ser diferente

e|-----------------------|
d|-----------------------|
g|--6-6-7-7-7-7-7-6-7----|
d|--------------------7--|
a|-----------------------|
e|-----------------------|

coração

e|-----------|
d|-----------|
g|-----------|
d|------7-7--|
a|--7/9------|
e|-----------|
Outros vídeos desta música
    5.224 exibições
      • ½ Tom
      • A
      • Bb
      • B
      • C
      • Db
      • D
      • Eb
      • E
      • F
      • F#
      • G
      • Ab
    • Adicionar à lista

    Afinação da cifra

    Afinador online

      0 comentários

      Ver todos os comentários

      Entre para o Cifra Club PRO

      Tenha acesso a benefícios exclusivos no App e no Site

      • Chega de anúncios

      • Mais recursos no app do Afinador

      • Atendimento Prioritário

      • Aumente seu limite de lista

      • Ajude a produzir mais conteúdo

      Cifra Club Pro

      Aproveite o Cifra Club com benefícios exclusivos e sem anúncios
      Cifra Club Pro
      Aproveite o Cifra Club com benefícios exclusivos e sem anúncios
      OK