Cifra Club

Aprenda

Nobody Knows You When You're Down And Out

Eric Clapton

Cifra: Aula_completa (violão e guitarra)
tom: Dm
[Intro] C  E7  A7  Dm  A7  Dm
        F  F#º  C  A7  D7  D7/F#  G7

Parte 1 de 4
   C      E7         A7
E|--------------0------------3-3-----3------|
B|---1-1----------3--2-------2-2-----2------|
G|---0-0----0h1------0-------0-0-----0------|
D|---2-2---------------------------2--------|
A|-3---3---------------0---0-0---0----------|
E|-----x--0-0---0-0-------------------------|

Parte 2 de 4
   Dm           A7     Dm
E|---1---1----------3--1------0--1----------|
B|---3---3--------2-2--3---3--3--3----------|
G|---2---2--2-----0----2---2--2--2----------|
D|-0------0---0--------0-0----0--0---0-1-2--|
A|--------------0-0-0-----------------------|
E|------------------------------------------|

Parte 3 de 4
   F       F#º      C          A7
E|-------------------------------3--3-------|
B|---1---1---1---1----1----------2--2--x----|
G|---2---2---2---2----0----------0--0--x----|
D|-3---3---4---4------2----------------x----|
A|------------------3-----2-1--0-------x----|
E|------------------------------------------|

Parte 4 de 4
   D7  D7/F#            G7
E|---2---2---2-2--------1----1-1------1-----|
B|---1---1---1-1--------0----0-0------0-----|
G|---2---2---2-2--------0----0-0------0-----|
D|-0--------------0-------------------------|
A|------------------------------------------|
E|-----2---2--------0-2-3-3--3-3--3-3---3---|

[Primeira Parte]

Parte 1 de 4
   C      E7         A7
E|--------------0------------3-3-----3------|
B|---1-1----------3--2-------2-2-----2------|
G|---0-0----0h1------0-------0-0-----0------|
D|---2-2-------------2-------x-----2-x------|
A|-3---3----------x----0---0-x---0---x------|
E|-----x--0-0---0-x-------------------------|

Parte 2 de 4
   Dm           A7     Dm
E|---1---1----------3--1------0--1----------|
B|---3---3--------2-2--3---3--3--3----------|
G|---2---2--2-----0----2---2--2--2-------x--|
D|-0------0---0-----x--0-0----x--0---0-1-2--|
A|--------x-----0-0-x---------x-------------|
E|------------------------------------------|

Parte 3 de 4
   F       F#º      C          A7
E|-------------------------------3--3-------|
B|---1---1---1---1----1----------2--2--x----|
G|---2---2---2---2----0----------0--0--x----|
D|---3---3---4---4----2-----x----------x----|
A|-------x-------x--3-----2-1--0-------x----|
E|-1---1---2---2----------------------------|

Parte 4 de 4
   D7  D7/F#            G7
E|---2---2---2-2--------1----1-1------1-----|
B|---1---1---1-1--------0----0-0------0-----|
G|---2---2---2-2--------0----0-0------0-----|
D|-0-----x--------0----------x--------x-----|
A|-------x--------x----------x--------x-----|
E|---------2----------3---3-------3-3---3---|

C                 E7                    
Once I lived the life of a 
 A7
Millionaire
Dm               A7         
   Spent all my money
        Dm
Didn’t have any care
F               F#º                          
  Took all my friends out 
    C              A7
For a mighty good time
D7                       D7/F#
   We bought bootleg liquor
G7
   Champagne and wine

C           E7         A7
  Then I began to fall    so low
Dm              A7         
   Lost all my good friends
     Dm
Had nowhere to go
F              F#º        C       A7
  If I get my hands on a dollar again
D7               D7/F#
   I’ll hang on to it 
          G7
‘til that old eagle grins

Because

[Refrão]

C    E7   A7
  Nobody knows you
Dm              A7      Dm 
   When you're down and out
F          F#º       C          A7
  In your pocket,   not one penny
D7              D7/F#
   And as for friends 
     G7
You don't have many 

[Primeira Parte]

C           E7                    
  When you get back
         A7
On your feet again
Dm            A7                 
   Everybody wants to be your 
 Dm
Long-lost friend
F              F#º                  
  I said it straight
             A7
Without any doubt
D7               D7/F#
   Nobody knows you
             G7
When you're down and out


[Solo] C  E7  A7  Dm  A7  Dm
       F  F#º C  A7  D7  D7/F#  G7

Parte 1 de 4
E|-----------------------------------------------------|
B|-----------------8-10~--10-8h10p8--------------------|
G|-----------5-7/9------------------9-7p5---5h6--------|
D|-------5-7------------------------------7-----7------|
A|-3-5/7-----------------------------------------------|
E|-----------------------------------------------------|

Parte 2 de 4
E|-----------------------------------------------------|
B|-5h6-5-6-5-------------------------------------------|
G|-----------7p5-7~-5----------------------------------|
D|--------------------7\5-3-5-3------------------------|
A|------------------------------0-3-4-5----------------|
E|-----------------------------------------------------|

Parte 3 de 4
E|--------------------------------------------------5--|
B|--------6-----6---------------------7/8-8-8-7-5-5-5--|
G|-----5--7-5-7-8\7-5-7-5---5-8\7p5---8/9-9-9-8-7-6----|
D|-5/7--------------------7---------7------------------|
A|-----------------------------------------------------|
E|-----------------------------------------------------|

Parte 4 de 4
E|-----------------------------------------------------|
B|---7---7/8--8-8h9--9~---9~--------12-13-14-14/15-14~-|
G|-----------------------------------------------------|
D|-7---7--/9----9----9~-9----9-9/12--------------------|
A|-----------------------------------------------------|
E|-----------------------------------------------------|

[Refrão]

C    E7   A7
  Nobody knows you
Dm              A7      Dm 
   When you're down and out
F          F#º       C          A7
  In your pocket,   not one penny
D7              D7/F#
   And as for friends 
     G7
You don't have many 

[Final]

Parte 1 de 4
   D7      D7/F#
E|---2-2-----2-2-2---2-2-2-----2-2-2--------|
B|---1-1-----1-1-1---1-1-1-----1-1-1--------|
G|---2-2-----2-2-2---2-2-2-----2-2-2--------|
D|-0-----------0-----0-----------0----------|
A|------------------------------------------|
E|---------2-----------------2--------------|

Parte 2 de 4
   F
E|-1--1-1----1-1-1-----1-1----1-1-1---------|
B|-1--1-1----1-1-1-----1-1----1-1-1---------|
G|-2--2-2----2-2-2-----2-2----2-2-2---------|
D|-3--3-3--3-3-3-3--3--3-3--3-3-3-3---------|
A|-3-------3--------3-------3---------------|
E|-1-------1--------1-------1---------------|

Parte 3 de 4
   D7               G7
E|---2-2-----2-2-2-----1--------------------|
B|---1-1-----1-1-1-----0--------------------|
G|---2-2-----2-2-2-----0--------------------|
D|-0-------0---0-------0--------------------|
A|---------------------x--------------------|
E|------------------3--x--------------------|

Parte 4 de 4
                                B7(9) C7(9)
E|------------------------------2-----3-----|
B|------------------------------2-----3-----|
G|------------------------------2-----3-----|
D|------------------------------1-----2-----|
A|------------------------------2-----3-----|
E|------------------------------------------|

C           E7                    
  When you get back
         A7
On your feet again
Dm            A7                 
   Everybody wants to be your 
 Dm
Long-lost friend
F              F#º                  
  I said it straight
             A7
Without any doubt
D7         D7/F#          
   Nobody knows you
F
   Nobody knows you
D7                  G7
   Nobody knows you
                         B7/9  C7/9
When you're down and out
Composição de Jimmie Cox
Colaboração e revisão:
  • Getúlio Vasconcelos
850 exibições
    • ½ Tom
    • Am
    • Bbm
    • Bm
    • Cm
    • C#m
    • Dm
    • Ebm
    • Em
    • Fm
    • F#m
    • Gm
    • G#m
  • Adicionar à lista

    0 comentários

    Ver todos os comentários

    Conseguiu tocar?

    0 Tocaram 0 Ainda não

    Grave um vídeo tocando Nobody Knows You When You're Down And Out e nos envie!

    00:00 / 00:00
    outros vídeos desta música
    repetir qualidade Automático
    Outros vídeos desta música
    00:00 / 00:00
    Automático
    Capítulos
    • Tocando a Música
    • Apresentação / Equipamentos
    • Acordes da Introdução
    • Tocando Introdução
    • Ensinando Introdução
    • Acordes da Primeira Parte - Refrão
    • Tocando Primeira Parte - Refrão
    • Ensinando Primeira Parte - Refrão
    • Tocando Solo
    • Ensinando Solo
    • Acordes do Final
    • Tocando Final
    • Ensinando Final
    • Encerramento

    Cifra Club Pro

    Aproveite o Cifra Club com benefícios exclusivos e sem anúncios
    Cifra Club Pro
    Aproveite o Cifra Club com benefícios exclusivos e sem anúncios
    OK