Cifra Club

Aprenda

More Than Meets The Eye

Europe

Cifra: Principal (violão e guitarra)
Tom: E
 Moderate Rock Q=95
  F# G#    D     A  E     D5 A/D         D5 A/D     E5   F#5     E/Ab
 4/4
  Gtrs I, V
   E. S +E  E +S  E. Q     E. S Q  H      E. S Q  Q  Q    E E E E E E E E
|----------------------||--------------|---------------|-----------------|
|----------------------||--------------|---------------|-----------------|
|----------------------||-7--6---------|-7--6----------|-----------------|
|----------------------||-7--7---------|-7--7-------9--|-----------------|
|----------5-(5)-0--7--||-5--5---------|-5--5-------7--|-4---4---7---7---|
|-2--4-(4)-------------||--------------|---------------|-2---2---4---4---|
|
| Gtr IV
| E. S +E  E +S  E. Q     E. S Q  H      E. S H     Q    H       H
|----------------------||--------------|---------------|-----------------|
|-3--5-(5)-7-(7)-5--9--||-7--5---------|-7--5-------0--|-----------------|
|-2--4-(4)-7-(7)-7--9--||-7--7---------|-7--7-------1--|-2---------------|
|-4--6-(6)-7-(7)-7--9--||-7--7---------|-7--7-------2--|-4-------6-------|
|----------------------||--------------|---------------|-4-------7-------|
|----------------------||--------------|---------------|---------7-------|


  A5                D5 A/D         D5 A/D     E5
  E E E E E E E E   E. S Q  H      E. S Q  Q  Q
|-----------------|--------------|---------------|
|-----------------|--------------|---------------|
|-----------------|-7--6---------|-7--6----------|
|-----------------|-7--7---------|-7--7-------9--|
|-7---7-----------|-5--5---------|-5--5-------7--|
|-5---5---5-3-2-0-|--------------|---------------|
|
| W                 E. S Q  H      E. S H     Q
|-----------------|--------------|---------------|
|-----------------|-7--5---------|-7--5-------0--|
|-2---------------|-7--7---------|-7--7-------1--|
|-2---------------|-7--7---------|-7--7-------2--|
|-4---------------|--------------|---------------|
|-----------------|--------------|---------------|


  F#5     E/Ab      A5
   E E E E E E E E   E E E E E E E E
|-----------------|-----------------||
|-----------------|-----------------||
|-----------------|-----------------||
|-----------------|---------7-5-4-2-||
|-4---4---7---7---|-7---7-----------||
|-2---2---4---4---|-5---5-----------||
|
| H       H         W
|-----------------|-----------------||
|-----------------|-----------------||
|-2---------------|-2---------------||
|-4-------6-------|-2---------------||
|-4-------7-------|-4---------------||
|---------7-------|-----------------||


 Pre-Chorus
  $
  B5                       A/C#
   E E E E  E  E  E     E   E E E E  E  E  E     E
|------------------------|------------------------|
|------------------------|------------------------|
|------------------------|------------------------|
|-4---4----4-----4-------|-7---7----7-----7-------|
|-2---2----2-----2-------|-4---4----4-----4-------|
|------------------------|------------------------|
|
| H       +E  E +S  E.     H       +E  E +S  E.
|------------------------|-------------4-(4)-5----|
|-3-------(3)-0-(0)-3----|-5-------(5)------------|
|-2----------------------|-2----------------------|
|-0----------------------|-2----------------------|
|-2----------------------|-4----------------------|
|------------------------|------------------------|
  W                        W


  D5                A/C# E5
   E E E E  E  E  S  E.   Q   Q  E E E E
|----------------------|-----------------||
|----------------------|-----------------||
|----------------------|-----------------||
|-7---7----7--7--7--7--|-9\-----9---9----||
|-5---5----5--5--5--4--|-7\-----7---7----||
|----------------------|-----------------||
|
| H       +E  E +S  E.   Q   Q  Q   Q
|-2-------(2)-2-(2)-0--|-----------------||
|-3-------(3)-3-(3)-2--|-5---------------||
|-2-------(2)-2-(2)-2--|-4------6---4----||
|-4-------(4)-4-(4)-2--|-6------7---7----||
|-5-------(5)-5-(5)-4--|-7------7---7----||
|----------------------|-----------------||


 Chorus
  $$
  F#5  E5    A5  D5       E5        F#5  D5    A5  E5       D5 E5
  Q.   E +E  Q   E   H    E E E E   Q.   E +E  Q   E   H    Q  Q
|------------------|--------------|------------------|-------------|
|------------------|--------------|------------------|-------------|
|------------------|--------------|------------------|-------------|
|----------------7-|-7----9---9---|------7-(7)-----9-|-9----7--9---|
|-4----2-(2)-7---5-|-5----7---7---|-4----5-(5)-7---7-|-7----5--7---|
|-2----0-(0)-5-----|--------------|-2----------5-----|-------------|
|
| Q.   E  E  E E E   H    Q   Q     Q.   E  E  E E E   H    Q  Q
|------------------|--------------|------------------|-------------|
|------------------|--------------|------------------|-------------|
|-6----4-----6---7-|-7----4---4---|-6----2-----6---4-|-4----2--4---|
|-7----6-----7---7-|-7----7---7---|-7----4-----7---6-|-6----4--6---|
|-9----7-----7---9-|-9----7---7---|-9----5-----7---7-|-7----5--7---|
|------------------|--------------|------------------|-------------|


              To Dbl. Coda                                    To Coda
   B5          A/C#          D5          E5       F# G#    D     A  E
    PM|   PM|   PM|   PM|     PM|   PM|
  E S S E S S E S S E S S   E S S E S S Q   Q    E. S +E  E +S  E. Q
|-------------------------|--------------------|----------------------||
|-------------------------|--------------------|----------------------||
|-------------------------|--------------------|----------------------||
|-4-----4-----7-----7-----|-7-----7-----9\-----|----------------------||
|-2-2-2-2-2-2-4-4-4-4-4-4-|-5-5-5-5-5-5-7\-----|----------5-(5)-0--7--||
|-------------------------|--------------------|-2--4-(4)-------------||
|
| H           H             Q     Q     Q   Q    E. S +E  E +S  E. Q
|-------------------------|--------------------|----------------------||
|-------------------------|-------3-----2------|-3--5-(5)-7-(7)-5--9--||
|-------------2-----------|-2-----------2------|-2--4-(4)-7-(7)-7--9--||
|-4-----------2-----------|-4-----------2------|-4--6-(6)-7-(7)-7--9--||
|-5-----------4-----------|-5------------------|----------------------||
|-7-----------------------|--------------------|----------------------||
                            H           H


 2nd Verse
  D5 A/D         D5 A/D     E5   F#5     E/Ab
 4/4
   E. S Q  H      E. S Q  Q  Q    E E E E E E E E
|--------------|---------------|-----------------|
|--------------|---------------|-----------------|
|-7--6---------|-7--6----------|-----------------|
|-7--7---------|-7--7-------9--|-----------------|
|-5--5---------|-5--5-------7--|-4---4---7---7---|
|--------------|---------------|-2---2---4---4---|
|
| E. S Q  H      E. S H     Q    H       H
|--------------|---------------|-----------------|
|-7--5---------|-7--5-------0--|-----------------|
|-7--7---------|-7--7-------1--|-2---------------|
|-7--7---------|-7--7-------2--|-4-------6-------|
|--------------|---------------|-4-------7-------|
|--------------|---------------|---------7-------|


  A5                                       D5  A/D             D5 A/D     E5
  E E E E E  E     E             E          E. S   Q    H      E. S Q  Q  Q
|----------------------------------------|-------------------|----------------|
|----------------------------------------|-------------------|----------------|
|----------------------------------------|--7--6-------------|-7--6-----------|
|----------------------------------------|--7--7-------------|-7--7-------9---|
|-7---7----------------------------------|--5--5-------------|-5--5-------7---|
|-5---5---5--3-----2-------------0-------|-------------------|----------------|
|
| W                                         E. S   Q    H      E. S H     Q
|----------------------------------------|-------------------|----------------|
|----------------------------------------|--7--5-------------|-7--5-------0---|
|-2--------------------------------------|--7--7-------------|-7--7-------1---|
|-2--------------------------------------|--7--7-------------|-7--7-------2---|
|-4--------------------------------------|-------------------|----------------|
|----------------------------------------|-------------------|----------------|
|
|            Gtr II
|                                           ~~~
| H       E.    S  S  S  a      +S   +S     Q     +Q    H      W
|--------------14------------------------|-------------------|----------------|
|-----------------17p14------------------|-------------------|----------------|
|-----------------------16b18==(16)r(16)p|=14----(14)\-------|----------------|
|----------------------------------------|-------------------|----------------|
|----------------------------------------|-------------------|----------------|
|----------------------------------------|-------------------|----------------|


                      D.S. al Coda
  F#5     E/Ab      A5
   E E E E E E E E   E E E E E E E E
|-----------------|-----------------||
|-----------------|-----------------||
|-----------------|-----------------||
|-----------------|---------7-5-4-2-||
|-4---4---7---7---|-7---7-----------||
|-2---2---4---4---|-5---5-----------||
|
| H       H         W
|-----------------|-----------------||
|-----------------|-----------------||
|-2---------------|-2---------------||
|-4-------6-------|-2---------------||
|-4-------7-------|-4---------------||
|---------7-------|-----------------||


 Guitar Break
  &
         F#5
  Gtr II
           ~~~~~~~~~                   ~~~~~~~~~~~~~
                                                     |-----3-----|
   a      +Q    +S   S     +S   S  E  +E       +E   +S      +S   S
|------------------------------------------------------------------|
|-17b19==(17)r=(17)-17b19r(17)p14-17-(17)b19==(17)r(17)b19r(17)p14-|
|------------------------------------------------------------------|
|------------------------------------------------------------------|
|------------------------------------------------------------------|
|------------------------------------------------------------------|
|
| Gtrs I, V
|          Q     Q                 H
|------------------------------------------------------------------|
|------------------------------------------------------------------|
|------------------------------------------------------------------|
|---------11-------------------------------------------------------|
|----------9-------------------------------------------------------|
|------------------------------------------------------------------|
|
| Gtr IV
|          Q     Q                 H
|------------------------------------------------------------------|
|----------7-------------------------------------------------------|
|----------6-------------------------------------------------------|
|----------7-------------------------------------------------------|
|------------------------------------------------------------------|
|------------------------------------------------------------------|


           ~~~~~~~~~                 ~~~~~~~~~                           ~~
   |----------6-----------|  |----------6-----------|  |------6-------|
   S      +S   +S   S  S  S  S      +S   +S   S  S  S  S  S  S  S  S  S  Q
|-17b19==(17)r(17)p14-------------------------------------------------------|
|---------------------17p14-17b19==(17)r(17)p14----14-----------------------|
|-----------------------------------------------17----17p16p14----16----14--|
|--------------------------------------------------------------16----16-----|
|---------------------------------------------------------------------------|
|---------------------------------------------------------------------------|
|
|  W
|---------------------------------------------------------------------------|
|---------------------------------------------------------------------------|
|---------------------------------------------------------------------------|
|---------------------------------------------------------------------------|
|---------------------------------------------------------------------------|
|---------------------------------------------------------------------------|
|
|  W
|---------------------------------------------------------------------------|
|---------------------------------------------------------------------------|
|---------------------------------------------------------------------------|
|---------------------------------------------------------------------------|
|---------------------------------------------------------------------------|
|---------------------------------------------------------------------------|


                                                ~~
  E  a      +Q     S  S  S  a      +E   +T   T  Q
|---22b24==(22)r--21-20-19-------------------------|
|--------------------------22b24==(22)r(22)p19h22--|
|--------------------------------------------------|
|--------------------------------------------------|
|--------------------------------------------------|
|--------------------------------------------------|


         T  T                 T  T        T        T        T  T              T        T
    |-------7--------|
    S S  S  S  S  S  S  T  T  T  T  T  T  T  T  T  T  T  T  T  T  T  T  T  T  T  T  T  T  T  T
|-/12p4h19--------------------------------------------------------------------------------------||
|----------------------12h14h19-------------------------------------------------------17p12h14--||
|----------18p14p13p11----------------------------18p11h13h18----------------18p11h13-----------||
|-------------------------------18p14p13-18p11h13----------------------11h13--------------------||
|-------------------------------------------------------------18p12p11--------------------------||
|-----------------------------------------------------------------------------------------------||


 Guitar Solo
         D5     A/D
   a      +H          E  S  S      +E   +S   S
|-----------------------14h16b17==(16)r(16)p14-|
|-17b19==(17)r\--------------------------------|
|----------------------------------------------|
|----------------------------------------------|
|----------------------------------------------|
|----------------------------------------------|
|
|        Gtrs I, V
|                   PM-----------------|
|          E.   S E E E  E          E    E
|----------------------------------------------|
|----------------------------------------------|
|----------7----6------------------------------|
|----------7----7------------------------------|
|----------5----5---5-5--5----------5----5-----|
|----------------------------------------------|
|
|        Gtr IV
|          E.   S Q   H
|----------------------------------------------|
|----------7----5------------------------------|
|----------7----7------------------------------|
|----------7----7------------------------------|
|----------------------------------------------|
|----------------------------------------------|


         D5   A/D                               E5
           ~~~~
   a      +Q      E.    S  S      +E     +T   T  E  S  S
|----------------------17-19b20==(19)r==(19)p17p16-19p17-|
|-17b19==(17)---/19--------------------------------------|
|--------------------------------------------------------|
|--------------------------------------------------------|
|--------------------------------------------------------|
|--------------------------------------------------------|
|
|                    PM---------------|
|          E. S   E  E     E          E          Q
|--------------------------------------------------------|
|--------------------------------------------------------|
|----------7--6------------------------------------------|
|----------7--7----------------------------------9-------|
|----------5--5------5-----5----------5----------7-------|
|--------------------------------------------------------|
|
|          E. S   H                              Q
|--------------------------------------------------------|
|----------7--5----------------------------------0-------|
|----------7--7----------------------------------1-------|
|----------7--7----------------------------------2-------|
|--------------------------------------------------------|
|--------------------------------------------------------|


  F#5                E/Ab
   +Q    S   S  S  S  S      +S   +S   S  S  S     +S   S
|-(17)---------17----16b17==(16)r(16)p14---------------16-|
|----------/14----14---------------------17---------------|
|-------------------------------------------16b18r(16)----|
|---------------------------------------------------------|
|---------------------------------------------------------|
|---------------------------------------------------------|
|
|   E  E E      E     E            E      E         E
|---------------------------------------------------------|
|---------------------------------------------------------|
|---------------------------------------------------------|
|---------------------------------------------------------|
|---4----4------------7-------------------7---------------|
|---2----2------------4-------------------4---------------|
|
|   H                 H
|---------------------------------------------------------|
|---------------------------------------------------------|
|---2-----------------------------------------------------|
|---4-----------------6-----------------------------------|
|---4-----------------7-----------------------------------|
|---------------------7-----------------------------------|


  A5
                                      ~~~~~~~
   S  S  S  S  +S   S  S  S  S  S  S  S  +Q
|----14------------12----12--------------------|
|-14----17------------14-------14--------------|
|----------14-(14)----------14-----------------|
|---------------------------------14-----------|
|------------------------------------12-(12)---|
|----------------------------------------------|
|
|  E     E      E      E     E     E      E  E
|----------------------------------------------|
|----------------------------------------------|
|----------------------------------------------|
|----------------------------------------------|
|--7------------7------------------------------|
|--5------------5------------5-----3------2--0-|
|
|  W
|----------------------------------------------|
|----------------------------------------------|
|--2-------------------------------------------|
|--2-------------------------------------------|
|--4-------------------------------------------|
|----------------------------------------------|


   D5    A/D                                   D5    A/D                   E5
                                                                          \2___|
                                        ~
                                                             |----3----|
   E  S  S    +E.     +S    +E    +S  S Q      Q.       +E   E   E     E  E   +E
|-------------------------------------------|-------------------------------------|
|-------------------------------------------|-------------------------------------|
|-----2h[4]b6r(4)b6r==(4)b6r(4)b6r(4)p2-----|-------------------------------------|
|-/4------------------------------------4---|-------------------------------------|
|-------------------------------------------|-[4]b5-----(4)-[4]-[3]---[2]-0---(0)-|
|-------------------------------------------|-------------------------------------|
|
| Gtrs I, V
|                   PM--------------------|              PM---------|
|  E.    S     E    E        E     E    E E    E.   S E  E   E      E     Q
|-------------------------------------------|-------------------------------------|
|-------------------------------------------|-------------------------------------|
|--7-----6----------------------------------|--7----6-----------------------------|
|--7-----7----------------------------------|--7----7---------------------9-------|
|--5-----5----------5--------5-----5----5-5-|--5----5----5---5------5-----7-------|
|-------------------------------------------|-------------------------------------|
|
| Gtr IV
|  E.    S     Q             H                 E.   S H                   Q
|-------------------------------------------|-------------------------------------|
|--7-----5----------------------------------|--7----5---------------------0-------|
|--7-----7----------------------------------|--7----7---------------------1-------|
|--7-----7----------------------------------|--7----7---------------------2-------|
|-------------------------------------------|-------------------------------------|
|-------------------------------------------|-------------------------------------|


  F#5                        E/Ab
    E  S  S  S     +S   S  S  S S  S S +Q
|---------------------------------------------|
|---------------------------------------------|
|-----11-13-13b14r(13)-11----11---11----------|
|-/11---------------------11----9----7-(7)\---|
|---------------------------------------------|
|---------------------------------------------|
|
|   E  E     E          E     E    E    E   E
|---------------------------------------------|
|---------------------------------------------|
|---------------------------------------------|
|---------------------------------------------|
|---4--------4----------------7---------7-----|
|---2--------2----------------4---------4-----|
|
|   H                         H
|---------------------------------------------|
|---------------------------------------------|
|---2-----------------------------------------|
|---4-------------------------6---------------|
|---4-------------------------7---------------|
|-----------------------------7---------------|


   A5
   |-------7-------|
   S S  S  S S  S  S T  T  T T  T  T T  T  T  T  T  T  T  T  T  T  T  T  T  T  T  T  T  T
|--------------------------------------------------------------10-12-14-12-10-------------|
|--------------------------------------------10-12-14-10-12-14----------------14-12-10-14-|
|----------------------------9-11-13-9-11-13----------------------------------------------|
|------------9-11-12-9-11-12--------------------------------------------------------------|
|----9-11-12------------------------------------------------------------------------------|
|-12--------------------------------------------------------------------------------------|
|
|  W
|-----------------------------------------------------------------------------------------|
|-----------------------------------------------------------------------------------------|
|-----------------------------------------------------------------------------------------|
|-----------------------------------------------------------------------------------------|
|--7--------------------------------------------------------------------------------------|
|--5--------------------------------------------------------------------------------------|
|
|  W
|-----------------------------------------------------------------------------------------|
|-----------------------------------------------------------------------------------------|
|--2--------------------------------------------------------------------------------------|
|--2--------------------------------------------------------------------------------------|
|--4--------------------------------------------------------------------------------------|
|-----------------------------------------------------------------------------------------|


  D                                 A
  Gtr II
    ~~~                              ~~~
    H    E  S  S  S  S  S     +S     H     E  S  S  S  S  S     +S
|---------------------------------|-------------------14h17b19r(17)-----||
|-/12---------14h15h17-17b19r(17)-|-17----------14h17-------------------||
|----------16---------------------|----------14-------------------------||
|---------------------------------|-------------------------------------||
|---------------------------------|-------------------------------------||
|---------------------------------|-------------------------------------||
|
| Gtr III
|   ~~~                              ~~~
|   H    E  S  S  S  S  S     +S     H     E  S  S  S  S  S     +S
|---------------------------------|-----------------9h10-10b12r(10)b12==||
|-----------------9h10-10b12r(10)-|-10----------10----------------------||
|--/7-------9h11------------------|-----------9-------------------------||
|---------------------------------|-------------------------------------||
|---------------------------------|-------------------------------------||
|---------------------------------|-------------------------------------||
|
|   H    E  E     E     E           +W
|---------------------------------|-------------------------------------||
|---0-------------------5---------|-(5)---------------------------------||
|---7----7--6-----7-----6---------|-(6)---------------------------------||
|---7----9--7-----9-----7---------|-(7)---------------------------------||
|---9-----------------------------|-------------------------------------||
|---------------------------------|-------------------------------------||


 Interlude
    W                                   +H.                         +E.     S
|--17--------------------------------|-(17)------------------------(17)-------|
|------------------------------------|----------------------------------------|
|------------------------------------|----------------------------------------|
|------------------------------------|----------------------------------------|
|------------------------------------|--------------------------------------0-|
|------------------------------------|----------------------------------------|
|
|  +W                                   +W
|-(10)-------------------------------|-(10)r----------------------------------|
|------------------------------------|----------------------------------------|
|------------------------------------|----------------------------------------|
|------------------------------------|----------------------------------------|
|------------------------------------|----------------------------------------|
|------------------------------------|----------------------------------------|
|
|   S  S S S S S S S S S S S S S S S     S   S S S S S S S S S S S   S  S S S
|---5------5-----5-----5-4---5-4-5-4-|---5-------5-----5-----5-4-----5--4-5-4-|
|------7-----7-----7-5-----5---------|-------7-----7-----7-5-----5------------|
|--------7-----7---------------------|---------7-----7------------------------|
|------------------------------------|----------------------------------------|
|------------------------------------|----------------------------------------|
|------------------------------------|----------------------------------------|


  A                                                                    B
  W                                 +H                E.     S +E    S S
|---------------------------------|----------------------------------------|
|---------------------------------|----------------------------------------|
|---------------------------------|----------------------------------------|
|-0-------------------------------|-(0)------------------------------------|
|---------------------------------|-------------------5------4-(4)---0h2---|
|---------------------------------|----------------------------------------|
|
| W                                 +H                E.     S +E    S S
|---------------------------------|----------------------------------------|
|---------------------------------|----------------------------------------|
|-7-------------------------------|-(7)---------------7------6-(6)---------|
|---------------------------------|----------------------------------7h9---|
|---------------------------------|----------------------------------------|
|---------------------------------|----------------------------------------|
|
| S S S S S S S S S S S S S S S S    S  S S S S S S S S  S S S  S  S S S
|-5-----5-----5-----5-4---5-4-5-4-|--5------5-----5------5-4----5--4-5-4---|
|---7-----7-----7-5-----5---------|-----7-----7-----7-5------5-------------|
|-----7-----7---------------------|-------7-----7--------------------------|
|---------------------------------|----------------------------------------|
|---------------------------------|----------------------------------------|
|---------------------------------|----------------------------------------|


                                                                        F#
  +W                                  +H.                       +E.     S
|-----------------------------------|-------------------------------------|
|-----------------------------------|-------------------------------------|
|-----------------------------------|-------------------------------------|
|-----------------------------------|-------------------------------------|
|-(2)-------------------------------|-(2)-----------------------(2)-------|
|-----------------------------------|-----------------------------------2-|
|
| +W                                  +H.                       +E.     S
|-----------------------------------|-------------------------------------|
|-----------------------------------|-------------------------------------|
|-----------------------------------|-------------------------------------|
|-(9)-------------------------------|-(9)-----------------------(9)-------|
|-----------------------------------|-----------------------------------9-|
|-----------------------------------|-------------------------------------|
|
|  S  S S S S S S S S S S S S S S S    S  S S S S S S S S S S S  S  S S S
|--5------5-----5-----5-4---5-4-5-4-|--5------5-----5-----5-4----5--4-5-4-|
|-----7-----7-----7-5-----5---------|-----7-----7-----7-5-----5-----------|
|-------7-----7---------------------|-------7-----7-----------------------|
|-----------------------------------|-------------------------------------|
|-----------------------------------|-------------------------------------|
|-----------------------------------|-------------------------------------|


  B                                                                 E
  W                                 +H.                       S S S S
|---------------------------------|-------------------------------------|
|---------------------------------|-------------------------------------|
|---------------------------------|-------------------------------------|
|---------------------------------|-------------------------------------|
|-2-------------------------------|-(2)-----------------------2-0-------|
|---------------------------------|-------------------------------2-0---|
|
| W                                 +H.                       S S S S
|---------------------------------|-------------------------------------|
|---------------------------------|-------------------------------------|
|---------------------------------|-------------------------------------|
|-9-------------------------------|-(9)-----------------------9-7-------|
|---------------------------------|-------------------------------9-7---|
|---------------------------------|-------------------------------------|
|
| S S S S S S S S S S S S S S S S    S  S S S S S S S S S S S S S S S
|-5-----5-----5-----5-4---5-4-5-4-|--5------5-----5-----5-4---5-4-5-4---|
|---7-----7-----7-5-----5---------|-----7-----7-----7-5-----5-----------|
|-----7-----7---------------------|-------7-----7-----------------------|
|---------------------------------|-------------------------------------|
|---------------------------------|-------------------------------------|
|---------------------------------|-------------------------------------|


                                                                        B
  +W                                  +H.                       +E.     S
|-----------------------------------|--------------------------------------|
|-----------------------------------|--------------------------------------|
|-----------------------------------|--------------------------------------|
|-----------------------------------|--------------------------------------|
|-----------------------------------|-----------------------------------2--|
|-(0)-------------------------------|-(0)-----------------------(0)--------|
|
| +W                                  +H.                       +E.     S
|-----------------------------------|--------------------------------------|
|-----------------------------------|--------------------------------------|
|-----------------------------------|--------------------------------------|
|-----------------------------------|-----------------------------------9--|
|-(7)-------------------------------|-(7)-----------------------(7)--------|
|-----------------------------------|--------------------------------------|
|
|  S  S S S S S S S S S S S S S S S    S  S S S S S S S S S S S  S  S S S
|--5------5-----5-----5-4---5-4-5-4-|--5------5-----5-----5-4----5--4-5-4--|
|-----7-----7-----7-5-----5---------|-----7-----7-----7-5-----5------------|
|-------7-----7---------------------|-------7-----7------------------------|
|-----------------------------------|--------------------------------------|
|-----------------------------------|--------------------------------------|
|-----------------------------------|--------------------------------------|


  E
  W
|---------------------------------|
|---------------------------------|
|---------------------------------|
|---------------------------------|
|-7-------------------------------|
|---------------------------------|
|
| W
|---------------------------------|
|---------------------------------|
|---------------------------------|
|---------------------------------|
|-7-------------------------------|
|---------------------------------|
|
| S S S S S S S S S S S S S S S S
|-5-----5-----5-----5-4---5-4-5-4-|
|---7-----7-----7-5-----5---------|
|-----7-----7---------------------|
|---------------------------------|
|---------------------------------|
|---------------------------------|


                          D.S.S. al Dbl. Coda
   |------6------|  |------6-------|
   S   S S  S  S S  S    S S  S  S S  Q    Q
|--------------------------9----10-9-12\-------||
|--------9----10-9-12---10---12----------------||
|-11---9---11----------------------------------||
|----------------------------------------------||
|----------------------------------------------||
|----------------------------------------------||
|
|  \1/              \1/
| +Q               +Q                +Q    Q
|----------------------------------------------||
|----------------------------------------------||
|----------------------------------------------||
|----------------------------------------------||
|-(7)--------------(7)---------------(7)\------||
|----------------------------------------------||
|
|  |------6------|  |------6-------|
|  S   S S  S  S S  S    S S  S  S S  Q    Q
|--------4-----5-4--7----5-9--7-10-9-12--------||
|--7---5----7----------------------------------||
|----------------------------------------------||
|----------------------------------------------||
|----------------------------------------------||
|----------------------------------------------||


                        Out-Chorus
  &&
  D5          E5         F#5  E5    A5  D5       E5
  Gtrs I, V
    PM|   PM|
   E S S E S S E E E E    Q.   E +E  Q   E   H    E E E E
|---------------------||------------------|--------------|
|---------------------||------------------|--------------|
|---------------------||------------------|--------------|
|-7-----7-----9---9---||----------------7-|-7----9---9---|
|-5-5-5-5-5-5-7---7---||-4----2-(2)-7---5-|-5----7---7---|
|---------------------||-2----0-(0)-5-----|--------------|
|
| Gtr IV
| Q     Q     Q   Q      Q.   E  E  E E E   H    Q   Q
|---------------------||------------------|--------------|
|-------3-----2---0---||------------------|--------------|
|-2-----------2---2---||-6----4-----6---7-|-7----4---4---|
|-4-----------2---2---||-7----6-----7---7-|-7----7---7---|
|-5-------------------||-9----7-----7---9-|-9----7---7---|
|---------------------||------------------|--------------|
  H           H


  F#5  D5    A5  E5       D5 E5
  Q.   E +E  Q   E   H    Q  Q
|------------------|------------|
|------------------|------------|
|------------------|------------|
|------7-(7)-----9-|-9----7--9--|
|-4----5-(5)-7---7-|-7----5--7--|
|-2----------5-----|------------|
|
| Q.   E  E  E E E   H    Q  Q
|------------------|------------|
|------------------|------------|
|-6----2-----6---4-|-4----2--4--|
|-7----4-----7---6-|-6----4--6--|
|-9----5-----7---7-|-7----5--7--|
|------------------|------------|


   B5          A/C#          D5          E5
    PM|   PM|   PM|   PM|     PM|   PM|
  E S S E S S E S S E S S   E S S E S S Q   Q
|-------------------------|--------------------|
|-------------------------|--------------------|
|-------------------------|--------------------|
|-4-----4-----7-----7-----|-7-----7-----9\-----|
|-2-2-2-2-2-2-4-4-4-4-4-4-|-5-5-5-5-5-5-7\-----|
|-------------------------|--------------------|
|
| H           H             Q     Q     Q   Q
|-------------------------|--------------------|
|-------------------------|-------3-----2------|
|-------------2-----------|-2-----------2------|
|-4-----------2-----------|-4-----------2------|
|-5-----------4-----------|-5------------------|
|-7-----------------------|--------------------|
                            H           H


  F# G#    D     A  E  F#
  E. S +E  E +S  E. E. S   +Q    Q  H
|------------------------|---------------*|
|------------------------|---------------*|
|------------------------|---------------*|
|------------------------|---------------*|
|----------5-(5)-0--7--9-|-(9)\----------*|
|-2--4-(4)---------------|---------------*|
|
| E. S +E  E +S  E. E. S    Q    Q  H
|------------------------|---------------*|
|-3--5-(5)-7-(7)-5--9--7-|--7------------*|
|-2--4-(4)-7-(7)-7--9--6-|--6------------*|
|-4--6-(6)-7-(7)-7--9--7-|--7------------*|
|------------------------|---------------*|
|------------------------|---------------*|


Duration Legend
---------------
W - whole; H - half; Q - quarter; E - 8th; S - 16th; T - 32nd; X - 64th; a - acciaccatura
+ - note tied to previous; . - note dotted; .. - note double dotted
Uncapitalized letters represent notes that are staccato (1/2 duration)
Irregular groupings are notated above the duration line
Duration letters will always appear directly above the note/fret number it represents the
duration for.  Duration letters with no fret number below them represent rests.  Multi-
bar rests are notated in the form Wxn, where n is the number of bars to rest for.  Low
melody durations appear below the staff

Tablature Legend
----------------
 h   - hammer-on
 p   - pull-off
 b   - bend
 pb  - pre-bend
 r   - bend release (if no number after the r, then release immediately)
 /\  - slide into or out of (from/to "nowhere")
 s   - legato slide
 S   - shift slide
 - natural harmonic
[n]  - artificial harmonic
n(n) - tapped harmonic
 ~   - vibrato
 tr  - trill
 T   - tap
 TP  - trem. picking
 PM  - palm muting
\n/  - tremolo bar dip; n = amount to dip
 \n  - tremolo bar down
 n/  - tremolo bar up
/n\  - tremolo bar inverted dip
 =   - hold bend; also acts as connecting device for hammers/pulls
 <> - volume swell (louder/softer)
 x   - on rhythm slash represents muted slash
 o   - on rhythm slash represents single note slash

Misc Legend
-----------
 |  - bar
||  - double bar
||o - repeat start
o|| - repeat end
*|  - double bar (ending)
 :  - bar (freetime)
 $  - Segno
 &  - Coda
Tempo markers -  = BPM(8/16=s8/s16), where s8 = swing 8ths, s16 = swing 16ths
Composição de Joey Tempest / Kee Marcello / Mic Michaeli
Colaboração e revisão:
  • Otávio Maia
357 exibições
    • ½ Tom
    • A
    • Bb
    • B
    • C
    • Db
    • D
    • Eb
    • E
    • F
    • F#
    • G
    • Ab
  • Adicionar à lista

    0 comentários

    Mostrar mais comentários

    Conseguiu tocar?

    0 Tocaram 0 Ainda não

    Grave um vídeo tocando More Than Meets The Eye e mande pra gente!

    00:00 / 00:00
    outros vídeos desta música
    repetir qualidade Automático
    Outros vídeos desta música
    00:00 / 00:00
    Automático

    Cifra Club Pro

    Aproveite o Cifra Club com benefícios exclusivos e sem anúncios
    7 dias grátis
    Cifra Club Pro
    Aproveite o Cifra Club com benefícios exclusivos e sem anúncios
    7 dias grátis
    OK