Cifra Club

Father Of Mine

Everclear

Cifra: Versão 5 (violão e guitarra)
Selo Cifra Club: esta cifra foi revisada para atender aos critérios oficiais da nossa Equipe de Qualidade.
tom: Bm
   ! - + - ! - + - ! !  !  -  +  -  !  -  +  -  ! !
E|--------------------|----------------------------|
B|--------------------|----------------------------|
G|--------------------|----------------------------|
D|7---7---7-7-7-7-----| 11----11----11-11-11-11-----|
A|5---5---5-5-5-5-----| 9-----9-----9--9--9--9------|
E|--------------------|----------------------------|

   !  -  +  -  !  -  +  -  ! !  ! - + - ! - + - ! !
E|----------------------------|--------------------|
B|----------------------------|--------------------|
G|----------------------------|--------------------|
D|12----12----12-12-12-12-----| 9---9---9-9-9-9-----|
A|10----10----10-10-10-10-----| 7---7---7-7-7-7-----|
E|----------------------------|--------------------|

That's the first verse.
When you get to the slides, it switches to this:

      ! - + - ! - + - ! - + - ! - + -  
E|----------------------------------|
B|----------------------------------|
G|*-7---7---7-7-7-7---------7\------|
D|*-7---7---7-7-7-7---------7\------|
A|--5---5---5-5-5-5---------5\------|
E|----------------------------------|

   !  -  +  -  !  -  +  -  !  -  +  -  !  -  +  -  
E|-----------------------------------------------|
B|-----------------------------------------------|
G|11----11----11-11-11-11--------------11\-------|
D|11----11----11-11-11-11--------------11\-------|
A|9-----9-----9--9--9--9---------------9\--------|
E|-----------------------------------------------|

E|-------------------------------------------------|
|1st ending
   !  -  +  -  !  -  +  -  !  -  +  -  !  -  +  -  
E|-----------------------------------------------|
B|-----------------------------------------------|
G|12----12----12-12-12-12--------------12\-------|
D|12----12----12-12-12-12--------------12\-------|
A|10----10----10-10-10-10--------------10\-------|
E|-----------------------------------------------|

E|------------------------------------|
   ! - + - ! - + - ! - + - ! - + -
E|--------------------------------|
B|--------------------------------|
G|9---9---9-9-9-9----------9\----*|
D|9---9---9-9-9-9----------9\----*|
A|7---7---7-7-7-7----------7\-----|
E|--------------------------------|

[Outro 2]
   !  -  +  -  !  -  +  -  !  -  +  -  !  -  +  -  ! + ! + ! + ! + 
E|-----------------------------------------------|----------------|
B|-----------------------------------------------|----------------|
G|12----12----12-12-12-12-------12----11----10---| 9-/-/-/-/-/-/-/-|
D|12----12----12-12-12-12-------12----11----10---| 9-/-/-/-/-/-/-/-|
A|10----10----10-10-10-10-------10----9-----8----| 7-/-/-/-/-/-/-/-|
E|-----------------------------------------------|----------------|

[Chorus]
(There are actually a few parts going on here. This is the main one.)

   ! - + - ! - + - ! - + - ! - + -  ! - + - ! - + - ! - + - ! - + -  (x2)
E|--------------------------------|--------------------------------|
B|--------------------------------|--------------------------------|
G|7---7---7---x-x-x-x-------------|-------------------------------*|
D|7---7---7---x-x-x-x-7---7---5---| 5---4---4---x-x-x-x-5---5---7--*|
A|5---5---5---x-x-x-x-7---7---5---| 5---4---4---x-x-x-x-5---5---7---|
E|--------------------5---5---3---| 3---2---2---x-x-x-x-3---3---5---|

   ! - + - ! - + - ! - + - ! - + - 2x ! - + - ! - + - ! - + - ! - + -  
E|---------------------------------|--------------------------------|
B|---------------------------------|--------------------------------|
G|7---7---7-7-7-7--------(7\)-----*| 7---7---7-7-7-7\----------------|
D|7---7---7-7-7-7--------(7\)-----*| 7---7---7-7-7-7\----------------|
A|5---5---5-5-5-5--------(5\)------| 5---5---5-5-5-5\----------------|
E|---------------------------------|--------------------------------|

(1st chorus has no slides.)

(That's it for the rhythm part. The rest is just fills and a solo.)

[Fill 1] 
(end of 1st chorus)
   !  -  +  -  !  -  +  -  !  -  +  -  !  -  +  -  ! ! ! ! 
E|-----------------------------------------------|--------|
B|-----------------------------------------------|--------|
G|b9-r--7-----------7----------------------------|--------|
D|---------9--7--9-----9--7--9-------------------|--------|
A|------------------------------7--9--7--9--7----| 5-------|
E|-----------------------------------------------|--------|

[Fill 2]
(2nd verse, right channel, also in verse 3)
   !  -  +  -  !  -  +  -  !  -  +  -  !  -  +  -  ! ! ! ! 
E|-----------------------------------------------|--------|
B|-----------------------------------------------|--------|
G|-----------------------------------------------|--------|
D|-----------------------------------------------| 0-------|
A|------------------------------7-h9--10| >9--7-h9-|--------|
E|-----------------------------------------------|--------|

[Fill 3]
(end of 3rd verse, left channel)
   ! - + - ! - + - ! - + - ! - + -  ! ! ! ! 
E|--------------------------------|--------|
B|--------------------------------|--------|
G|--------------------------------|--------|
D|------------------7-9-7---7-9-6-| 7-------|
A|----------------9-------9-------|--------|
E|--------------------------------|--------|

[Pre-Solo]
           this part isn't very clear---------------------------|
   !   -   +   -   !   -   +   -   !   -   +   -   !   -   +   -
E|--------b12-r---10---------------------------------------------|
B|--------------------12--10-------------------------------------|
G|----------------------------11--9---11--7-------7---9---b9--r--|
D|---------------------------------------------------------------|
A|---------------------------------------------------------------|
E|---------------------------------------------------------------|

[Solo]
   !  -  +  -  !  -  +  -  !  -  +  -  !  -  +  -
E|-----------------------------------------------|
B|-----------------------------------------------|
G|b9-r--7-----------7--9--b9-r--7-----7----------|
D|---------9--7--9------------------9-------9| >>>>| (this slide is up
A|-----------------------------------------------| to fret 19 but
E|-----------------------------------------------| ends indefinitely)

   !   -   +   -   !   -   +   -   !   -   +   -   !   -   +   -
E|---------------------------------------------------------------|
B|------------------------17------17b-------------17b------------|
G|16------16--19--16--19------19---------------------------------|
D|----19---------------------------------------------------------|
A|---------------------------------------------------------------|
E|---------------------------------------------------------------|

   !   -   +   -   !   -   +   -   !   -   +   -   !   -   +   -
E|---------------------------------------------------------------|
B|17b-----------------------------7---10--7----------------------|
G|----------------14\-----7---9---------------9---7-------7---9--|
D|----------------------------------------------------9----------|
A|---------------------------------------------------------------|
E|---------------------------------------------------------------|

           this part also isn't very clear----|
   !  -  +  -  !  -  +  -  !  -  +  -  !  -  +  -  ! ! ! !
E|-----------------------------------------------|--------|
B|-----------------------------------------------|--------|
G|b9-r--7-----------------------------7----------| 7-------|
D|---------9--7-----------9--7--9--7-----9--7--9-|--------|
A|---------------9--7--9-------------------------|--------|
E|-----------------------------------------------|--------|


************************************

| >    slide
| \    indefinite slide
| /    rhythm slash
| ()   notes inside parentheses are not played every time
| b9-r prebend note, pick, then release bend
| h9   hammer on
| 17b  pick and bend
Outros vídeos desta música
    3 exibições
      • ½ Tom
      • Am
      • Bbm
      • Bm
      • Cm
      • C#m
      • Dm
      • Ebm
      • Em
      • Fm
      • F#m
      • Gm
      • G#m
    • Adicionar à lista

    Afinação da cifra

    Afinador online

      0 comentários

      Ver todos os comentários

      Conseguiu tocar?

      0Tocaram0Ainda não

      Grave um vídeo tocando Father Of Mine e nos envie!

      Toque também

      1. Imagem do artista Third Eye BlindJumper Third Eye Blind
      2. Imagem do artista Eve 6Inside Out Eve 6
      3. Imagem do artista The Verve PipeThe Freshmen The Verve Pipe
      4. Imagem do artista LITMy own worst enemy LIT

      Entre para o Cifra Club PRO

      Tenha acesso a benefícios exclusivos no App e no Site

      • Chega de anúncios

      • Badges exclusivas

      • Mais recursos no app do Afinador

      • Atendimento Prioritário

      • Aumente seu limite de lista

      • Ajude a produzir mais conteúdo

      Cifra Club Pro

      Aproveite o Cifra Club com benefícios exclusivos e sem anúncios
      Cifra Club Pro
      Aproveite o Cifra Club com benefícios exclusivos e sem anúncios
      OK