Cifra Club

Isso Aqui É Uma Guerra

Facção Central

Cifra: Principal (violão e guitarra)
tom: C
solo do contra-baixo(*):

|-----------|-----------|-----------|-----------|
|-----2-3-2-|-----2^3h0-|-----2-3-2-|-----2^3h0-|
|-3-4-------|-3^4-------|-3-4-------|-3^4-------|
|-----------|-----------|-----------|-----------|

introdução da guitarra:

|-------------------------------------------------------|
|-------------------------------------------------------|
|-12p11-9h-12p11-9h-12p11-9h-12p11-9h-12p11-9h-12p11-9h-|
|-------------------------------------------------------|
|-------------------------------------------------------|
|-------------------------------------------------------|

solo da guitarra:

|------------------------------|
|-9-12-9-9-12-9-9-12-9-9-12p11-|
|------------------------------|
|------------------------------|
|------------------------------|
|------------------------------|

solo final(**):

|--------14^13^14---------14^13^12/10-|
|-12^15h------------12h15-------------|
|-------------------------------------|
|-------------------------------------|
|-------------------------------------|
|-------------------------------------|

nota:

*A base da música é muito baixa tente escutando a música.
**Esse solo final é feito pelo trompete, mas pode ser 
feito tambem pela guitarra.
00:00 / 00:00
Outros vídeos desta música
Repetir
Outros vídeos desta música
Composição de Eduardo
Colaboração e revisão:
  • Izaackque Diaz
6.518 exibições
    • ½ Tom
    • A
    • Bb
    • B
    • C
    • Db
    • D
    • Eb
    • E
    • F
    • F#
    • G
    • Ab
  • Adicionar à lista

    0 comentários

    Ver todos os comentários

    Entre para oCifra Club PRO

    Tenha acesso a benefícios exclusivos no App e no Site

    • Chega de anúncios

    • Prioridade de compra em lançamentos

    • Mais recursos no app do Afinador

    • Atendimento Prioritário

    • Descontos nos produtos Cifra Club

    • Ajude a produzir mais conteúdo

    00:00 / 00:00

    Cifra Club Pro

    Aproveite o Cifra Club com benefícios exclusivos e sem anúncios
    Cifra Club Pro
    Aproveite o Cifra Club com benefícios exclusivos e sem anúncios
    OK