Cifra Club

Aprenda

Espumas ao Vento

Flávio José

Tab de baixo: Principal
Afinação em E

Introdução

|------------------------------------------------------------
|----------5-3-----3-5-5---3---1-------1-1-----------3h5--------3h5-----------------------
|--------3-------3-------3---3-------1--------3h5---------------------3---
|-9\1--1------------------------------------------3-------3--------


|------------------------------------------------------------
|------------------------------------------------------------
|-----3-------------------------------------------------------
|-1-1---0-0-------------------------------------------------------


repete

|------------------------------------------------------------
|------------------------------------------------------------
|-3-3---1-3--------------------------------------------------------
|-----4-------------------------------------------------------



sei que ai dewntro ainda mora um pedacinho de mim


|------------------------------------------------------------
|------------------------3-3h5-------------------1----1-----------
|-3-----1---3-----3h5--------------3--------1--1-----1--1-----------------
|-----3---3-----------3--------3-----3--4-4----------------0-1-2-3---


nao é coisa de momento raiva passageira


|----------------------------------------------------------
|-----5-----3---1-----1----------------------------------------
|---3-----3---3------1---------------------3-5----------------------------
|-3-----------------1----0-3-4---3-1-----3------4-3-----------------------

sei que errei e tou aqui pra te pedir perdão


|------------------------------------------------------------
|-------------------3-3h5-----------------1----1----------------5-----3--1------1----
|-3---1---3---3h5--------------3---3-4--4----1---1----------3-------3---------1----
|---1---1---------3-------3------3-----------------0-1-2-3----3-------------1-----------

mas se eu fosse voce amor eu voltava pra mim de novo


|------------------------------------------------------------
|------------------------------------------------------------
|-----------4-5---3-------3-----3---------------------------------
|-0-3-4---4-----3-----0-3---0-3----1--------------------------------------

[refrao]

e de uma coisa fique certa amor


|--------------------------------3----------------------------
|--3---------3---1-----1-------3---3--------------3------------------
|----3-1-------3-----1-----------------5--5-----3----3--------------------
|1-------------------------4-----------------4-3-------------------

|-----5---5-5\----------------------------------------------------
|---5---5------------------------------------------------------
|-3-----------------------------------------------------------
|------------------------------------------------------------

e de uma coisa fique certa amooooor

|------------------------------------------------------------
|------3--------3-1-----1----------------------------------------
|----1---1----1-------1-----------4-5----5---------5-3-----------------
|-1------------------------4----4------5---3-----3-----------------



Daniel Bonfim - v3rm0t3@gmail.com
Composição de Accioly Neto
Colaboração e revisão:
  • Daniel bonfim
1.966 exibições

0 comentários

Mostrar mais comentários

Conseguiu tocar?

0 Tocaram 0 Ainda não

Grave um vídeo tocando Espumas ao Vento e mande pra gente!

00:00 / 00:00
outros vídeos desta música
repetir qualidade Automático
Outros vídeos desta música
00:00 / 00:00
Automático
OK