Cifra Club

Herdeiro de Tudo

Florianópolis House Of Prayer (fhop music)

Cifra: Principal (violão e guitarra)
Selo Cifra Club: esta cifra foi revisada para atender aos critérios oficiais da nossa Equipe de Qualidade.
tom: E
[Intro] A  E  B/D#  C#m 
        A  E  B/D#  C#m 
        A  E  B/D#  C#m 
        A  E  B/D#  C#m 

          E
Para a terra
B/D#      C#m
Ele voltará
A      E      B/D#        C#m
Sobre tudo, o filho reinará
A     E      B/D#  C#m
Tudo novo o noivo fará
A    E        B/D#  C#m
E conosco sempre estará

( E  B/D#  C#m  A )
( E  B/D#  C#m  A )

          E
Para a terra
B/D#      C#m
Ele voltará
A      E      B/D#        C#m
Sobre tudo, o filho reinará
A     E      B/D#  C#m
Tudo novo o noivo fará
A    E        B/D#  C#m  E
E conosco sempre estará
B  E      B/D#     C#m
Jesus, herdeiro de tudo
      A      E
E do meu coração
      B/D#    C#m
Salvador soberano
      A      E
Sobre cada nação
B/D#      C#m      A        E
Tu és a imagem do Deus invisível
B/D#   C#m         A       E       B/D# C#m
A expressão exata, testemunha fiel Ooh ooh
 A       E  B/D# C#m
Testemunha fiel ooh ooh

( B  C#m  G#m )
( A  B  C#m  G#m )
( A  B  C#m  G#m )

A
 Jesus, Filho de Deus
B
 Jesus, Herdeiro de tudo
C#m            G#m
   Jesus, Emanuel

[Solo] A  B  C#m  G#m
       A  B  C#m  G#m

[Tab - Solo]

E|----------------------------------------------|
B|-5--7--9~---5--7--9---5-4---------------------|
G|----------------------------------------------|
D|----------------------------------------------|
A|----------------------------------------------|
E|----------------------------------------------|

E|----------7--9-4------------------------------|
B|-5--7--9--------------------------------------|
G|----------------------------------------------|
D|----------------------------------------------|
A|----------------------------------------------|
E|----------------------------------------------|

E|--------------------------------7-------------|
B|-5--7--9~---5--7--9---5-4---4h5-----12--------|
G|----------------------------------------------|
D|----------------------------------------------|
A|----------------------------------------------|
E|----------------------------------------------|

E|-12-14-16----12-14-16--12-11------------------|
B|----------------------------------------------|
G|----------------------------------------------|
D|----------------------------------------------|
A|----------------------------------------------|
E|----------------------------------------------|

E|-12-14-16---19-21---16~-----------------------|
B|----------------------------------------------|
G|----------------------------------------------|
D|----------------------------------------------|
A|----------------------------------------------|
E|----------------------------------------------|

E|-12-14-16---12-14-16--12-11--11h12-14---------|
B|----------------------------------------------|
G|----------------------------------------------|
D|----------------------------------------------|
A|----------------------------------------------|
E|----------------------------------------------|

F#m
  Testemunha fiel
E
  Primogênito dentre os mortos
C#m                         B
   Soberano dos reis da terra
A
 Jesus, Filho de Deus
B
 Jesus, Herdeiro de tudo
C#m            G#m
   Jesus, Emanuel
B            E9
Porque Ele vive
           A
Posso crer no amanhã
            E9
Porque Ele vive
C#m       D   B
Temor não há
            E9  F#m  E
Mas eu bem sei, eu sei
             A   Am
Que a minha vida
         E    B
Está nas mãos do meu Jesus
            A   E
Que vivo está
00:00 / 00:00
Outros vídeos desta música
Repetir
Outros vídeos desta música
12.396 exibições
    • ½ Tom
    • A
    • Bb
    • B
    • C
    • Db
    • D
    • Eb
    • E
    • F
    • F#
    • G
    • Ab
  • Adicionar à lista

Afinação da cifra

Afinador online

    0 comentários

    Ver todos os comentários

    Entre para o Cifra Club PRO

    Tenha acesso a benefícios exclusivos no App e no Site

    • Chega de anúncios

    • Mais recursos no app do Afinador

    • Atendimento Prioritário

    • Aumente seu limite de lista

    • Ajude a produzir mais conteúdo

    00:00 / 00:00

    Cifra Club Pro

    Aproveite o Cifra Club com benefícios exclusivos e sem anúncios
    Cifra Club Pro
    Aproveite o Cifra Club com benefícios exclusivos e sem anúncios
    OK