Enviar cifraEntrar

Amor Pra Recomeçar

Frejat

Cifra: Principal
exibições 429.543
Tom: C
Intro: G  D9(11)  C

       G                 D9(11)     C
E|-----------------------------------------
B|-0h1-3-----------3---------3-----------1-
G|-0---0-0---0-----0-----0---0------0----0-
D|-------------0---------4---4---4--2----2-
A|-----------------------5-5---5-5--3--3---
E|-----3---3-----3-------------------------


E|-----------------------------------------
B|---1---1------1-1------------------------
G|---0---0------0-0------------------------
D|---2---2------2-2------------------------
A|-----3---3--3----------------------------
E|-----------------------------------------


Primeira parte:
G                             A4(7)
  Eu te desejo não parar tão cedo
            C9(11+)
Pois toda idade tem prazer e medo
G                               A4(7)
  E com os que erram feio e bastante
             C9(11+)      F7M
Que você consiga ser tolerante

   G                 A4(7)
E|-------3-------3---------0-------0-------
B|-------3-------3---------3-------3-------
G|-----0-------0---------0-------0---------
D|---0-------0---------2-------2-----------
A|-------------------0-------0-------------
E|-3-------3-------------------------------


   C9(11+)
E|-------0-------0-------0-------0---------
B|-------3-------3-------3-------3---------
G|-----0-------0-------0-------0-----------
D|---4-------4-------4-------4-------------
A|-3-------3-------3-------3---------------
E|-----------------------------------------


   G                 A4(7)
E|-------3-------3---------0-------0-------
B|-------3-------3---------3-------5-------
G|-----0-------0---------0-------0---------
D|---0-------0---------2-------4-----------
A|-------------------0-------0-------------
E|-3-------3-------------------------------


   C9(11+)           F7M
E|-------0-------0---------0-------0-------
B|-------3-------3-------1-------1---------
G|-----0-------0-------2-------2-----------
D|---4-------4-------3-------3-------------
A|-3-------3-------------------------------
E|-----------------------------------------


Segunda parte:
Em7(9)
       Quando você ficar triste
     Dm7             Em7(9)                Am7
Que seja por um dia,        e não o ano inteiro

Em7(9)                          Dm7
       E que você descubra que rir é bom,
         Em7(9)             A5(9)
mas que rir de tudo é desespero

    Em7(9)       Dm7
E|--2--------2---1----------1--------------
B|--3----3---3---1-----1----1--------------
G|-------0-------------2-------------------
D|---------------0--0-----0----------------
A|-----------------------------------------
E|--0--0---0-------------------------------


    Em7(9)       Am7
E|--2--------2---3----------3--------------
B|--3----3---3---1-----1----1--------------
G|-------0-------------0-------------------
D|-----------------------------------------
A|---------------0--0-----0----------------
E|--0--0---0-------------------------------


Refrão:
   G             Am7      D9(11)
Desejo que você tenha a quem amar
C9(11+)        Em7(9)
  E quando estiver bem cansado
 G    Am7                    D9(11)
Ainda,    exista amor pra recomeçar

D/C        G      D9(11) C
    Pra recomeçar

   G                 Am7
E|---3----3p2-0--------3----3--3---3-------
B|---3----3---3-1-0----1----1--1---1-------
G|---0----0------------0----0--0---0-------
D|-----------------------------------------
A|-------------------0----0------0---------
E|-3----3----------------------------------


   D11
E|---5----5--5---5--3-----2-------2--------
B|---3----3--3---3--3-----0-------0--------
G|---0----0--0---0----0------0-------------
D|-----------------------------------------
A|-5----5------5----5---5-------5----------
E|-----------------------------------------


   C9(11+)            Em7(9)
E|-----------------------------------------
B|-------3--------3---------3-------3------
G|-----0--------0---------0-------0--------
D|---4--------4---------4-------4----------
A|-3--------3------------------------------
E|--------------------0-------0------------


   G                 Am7
E|---3----3------------3----3--3---3-------
B|---3----3p1p0--------1----1--1---1-------
G|---0----0-----2-0----0----0--0---0-------
D|-----------------------------------------
A|-------------------0---0-------0---------
E|-3----3------3---------------------------


   D11              C/D
E|-----------------------------------------
B|---3----3--3---3--5--5-------------------
G|---0----0--0---0--5--5-------------------
D|---4----4--4---4--5--5-------------------
A|-5----5------5----5----------------------
E|-----------------------------------------


Primeira parte com variação:
G                       A4(7)
  Eu te desejo, muitos amigos
           C9(11+)
Mas que em um você possa confiar
G                     A4(7)
  E que tenha até inimigos
       C9(11+)              F7M
Pra você não deixar de duvidar

(Repete segunda parte com variação)
Em7(9)
       Quando você ficar triste
     Dm7(9)          Em7(9)                Am7
Que seja por um dia,        e não o ano inteiro
Em7(9)                          Dm7
       E que você descubra que rir é bom,
         Em7(9)                Am7
mas que rir de tudo é desespero

Refrão:
  G             Am7      D9(11)
Desejo que você tenha a quem amar
C9(11+)            Em7(9)
  E quando estiver bem cansado
 G    Am7                    D9(11)
Ainda,    exista amor pra recomeçar
       G      Am7
Pra recomeçar

Terceira parte:  D9(11)  C9(11+)

      D9(11)
Eu desejo que você ganhe dinheiro
           C9(11+)
Pois é preciso viver também
         D9(11)
E que você diga a ele, pelo menos uma vez,
        Em7(9)         C9(11+)  D9
Quem é mesmo dono de quem

   D9(11)
E|-----------------------------------------
B|-------3--------3-------3-------3--------
G|-----0--------0-------0-------0----------
D|---4--------4-------4-------4------------
A|-5--------5-------5-------5--------------
E|-----------------------------------------


   C9(11+)
E|-----------------------------------------
B|-------3--------3-------3-------3--------
G|-----0--------0-------0-------0----------
D|---4--------4-------4-------4------------
A|-3--------3-------3-------3--------------
E|-----------------------------------------


   C9(11+)
E|-----------------------------------------
B|-------3-------3-------3-----------------
G|-----0-------0-------0---2h3p2p0---------
D|---4-------4-------4-------------2p0-----
A|-3-------3-------3-------------------2p0-
E|-----------------------------------------


   D5(9)/F#
E|-----------------------------------------
B|-------3--------3--------3-------3-------
G|-----2--------2--------2-------2---------   (3x)
D|---0--------0--------0-------0-----------
A|-----------------------------------------
E|-2-------2---------2-------2-------------


E|-----------------------------------------
B|-------3--------3-------3-------3--------
G|-----0--------0-------0-------0----------
D|---4--------4---- ---4-------4-----------
A|------------------3-------3--------------
E|-0--------0------------------------------


E|-0-----0------0---0-----0----------------
B|-10----10-----10--10----10---------------
G|-9h11--11-----11--11----11---------------
D|-0-----0------0---0-----0----------------
A|-----------------------------------------
E|-0---------0----------0------------------


E|-------0------0---0----------------------
B|-------10-----10--10-----8--x-7-7-x-5----
G|-------11-----11--11-----0--x-0-0-x-0----
D|-------0------0---0---------x-----x-0----
A|-------------------------7--x-5---x-3----
E|-0---------0----------0------------------


E|-----------------------------------------
B|-5-5-5-5-5-5-----------------------------
G|-0-0-0-0-0-0-----------------------------
D|-0-0-0-0-0-0-----------------------------
A|-3-3-3-3-3-3-----------------------------
E|-----------------------------------------


Refrão:
  G             Am7      D9(11)
Desejo que você tenha a quem amar
C9(11+)            Em7(9)
  E quando estiver bem cansado
 G    Am7                    D9(11)
Ainda,    exista amor pra recomeçar

( G  D9(11)  C )

( G  D9(11)  C  G  D9(11)  F7M )
  • 1
  • 2
  • 3
  • 4
  • 5
  • 6
  • 7
  • 8
  • 9
  • 10
  • 11
  • 12
    Acordes para:
      Composição: Frejat / Mauricio Barros / Mauro Sta. CecíliaColaboração e revisão:
      • Caroline

      0 comentários

        mostrar mais comentários

        Conseguiu tocar?

        19tocaram1ainda não

        Grave um vídeo tocando Amor Pra Recomeçar e mande pra gente!

        00:00 / 00:00
        outros vídeos desta música
        repetirqualidadeautomática
        • automática
        Outro vídeos desta música
          Capítulos
          • Início
          • Tocando a música
          • Acordes da Introdução - Segunda Parte
          • Tocando Introdução - Segunda Parte
          • Ensinando Introdução
          • Ensinando Primeira Parte
          • Ensinando Segunda Parte
          • Acordes do Refrão
          • Tocando Refrão
          • Ensinando Refrão (Parte 1)
          • Ensinando Refrão (Parte 2)
          • Ensinando Refrão (Parte 3)
          • Ensinando Refrão (Parte 4)
          • Ensinando Refrão (Parte 5)
          • Ensinando Variações
          • Acordes da Terceira Parte
          • Tocando Terceira Parte - Final
          • Ensinando Terceira Parte (Parte 1 e 2)
          • Ensinando Terceira Parte (Parte 3)
          • Ensinando Terceira Parte (Parte 4 - 8)
          • Ensinando Final
          • Encerramento
          00:00 / 00:00
          automática
          • automática
          Acordes para:violão e guitarra
          dificuldadeexibiçõescontribuições
          1 versão de Guitar Proformatodownloadscontribuição
          fecharplay/pause subir/descer velocidade
            acordes
            fechar
            OK
            Feedback