Cifra Club

Amor Pra Recomeçar

Frejat

Cifra: Principal
exibições 515.750
Tom: C
Intro 2x: G  D11  C

Parte 1 de 2

       G                 D11
E|-----------------------------------------|
B|-0h1-3-----------3---------3-------------|
G|-0---0-0---0-----0-----0---0---0---------|
D|-------------0---------4---4---4---------|
A|-----------------------5-5---5-5---------|
E|-----3---3-----3-------------------------|

Parte 2 de 2

   C
E|-----------------------------------------|
B|------1--1---1------1-1------------------|
G|-0----0--0---0------0-0------------------|
D|-2----2--2---2------2-2------------------|
A|-3--3------3---3--3----------------------|
E|-----------------------------------------|

Primeira parte:

G                             A4(7)
  Eu te desejo não parar tão cedo
            C4+(9)
Pois toda idade tem prazer e medo
G                               A4(7)
  E com os que erram feio e bastante
       C4+(9)             F7M
Que você consiga ser tolerante

Parte 1 de 4

   G                 A4(7)
E|-------3-------3---------0-------0-------|
B|-------3-------3---------3-------3-------|
G|-----0-------0---------0-------0---------|
D|---0-------0---------2-------2-----------|
A|-------------------0-------0-------------|
E|-3-------3-------------------------------|

Parte 2 de 4

   C4+(9)
E|-------0-------0-------0-------0---------|
B|-------3-------3-------3-------3---------|
G|-----0-------0-------0-------0-----------|
D|---4-------4-------4-------4-------------|
A|-3-------3-------3-------3---------------|
E|-----------------------------------------|

Parte 3 de 4

   G                 A4(7)
E|-------3-------3---------0-------0-------|
B|-------3-------3---------3-------5-------|
G|-----0-------0---------0-------0---------|
D|---0-------0---------2-------4-----------|
A|-------------------0-------0-------------|
E|-3-------3-------------------------------|

Parte 4 de 4

   C4+(9)            F7M
E|-------0-------0---------0-------0-------|
B|-------3-------3-------1-------1---------|
G|-----0-------0-------2-------2-----------|
D|---4-------4-------3-------3-------------|
A|-3-------3-------------------------------|
E|-----------------------------------------|

Segunda parte:

Em7(9)
       Quando você ficar triste
     Dm7             Em7(9)                Am7
Que seja por um dia,        e não o ano inteiro
Em7(9)                          Dm7
       E que você descubra que rir é bom
         Em7(9)             Am7
Mas que rir de tudo é desespero

Parte 1 de 2

    Em7(9)       Dm7
E|--2--------2-----1--------1--------------|
B|--3----3---3-----1---1----1--------------|
G|-------0-------------2-------------------|
D|---------------0---0----0----------------|
A|-----------------------------------------|
E|--0--0---0-------------------------------|

Parte 2 de 2

    Em7(9)       Am7
E|--2--------2-----3---------3-------------|
B|--3----3---3-----1---1-----1-------------|
G|-------0-------------0-------------------|
D|-----------------------------------------|
A|---------------0---0-----0---------------|
E|--0--0---0-------------------------------|

Refrão:

   G   Am7                    D11
Desejo     que você tenha a quem amar
              C4+(9)         Em7(9)
E quando estiver bem cansado
 G     Am7                    D11
Ainda,     exista amor pra recomeçar
C/D        G      D11  C
    Pra recomeçar

Parte 1 de 5

   G                 Am7
E|---3----3p2-0--------3----3--3---3-------|
B|---3----3---3-1p0----1----1--1---1-------|
G|---0----0------------0----0--0---0-------|
D|-----------------------------------------|
A|-------------------0----0------0---------|
E|-3----3----------------------------------|

Parte 2 de 5

   D11
E|---5----5--5---5--3----2-----2-----------|
B|---3----3--3---3----3----0-----0---------|
G|---0----0--0---0------0----0-------------|
D|-----------------------------------------|
A|-5----5------5---------------------------|
E|-----------------------------------------|

Parte 3 de 5

   C4+(9)             Em7(9)
E|-----------------------------------------|
B|-------3--------3---------3-------3------|
G|-----0--------0---------0-------0--------|
D|---4--------4---------4-------4----------|
A|-3--------3------------------------------|
E|--------------------0-------0------------|

Parte 4 de 5

   G                 Am7
E|---3-----------------3----3--3---3-------|
B|---3----3p1p0--------1----1--1---1-------|
G|---0----------2p0----0----0--0---0-------|
D|-----------------------------------------|
A|-------------------0---0-------0---------|
E|-3----3----------------------------------|

Parte 5 de 5

   D11              C/D
E|---5----5--5---5-------------------------|
B|---3----3--3---3--5----------------------|
G|---0----0--0---0--5----------------------|
D|------------------5----------------------|
A|-5----5------5----5----------------------|
E|-----------------------------------------|

Primeira parte com variação:

G                       A4(7)
  Eu te desejo, muitos amigos
           C4+(9)
Mas que em um você possa confiar
G                     A4(7)
  E que tenha até inimigos
       C4+(9)               F7M
Pra você não deixar de duvidar

Repete segunda parte com variação:

Em7(9)
       Quando você ficar triste
     Dm7             Em7(9)                Am7
Que seja por um dia,        e não o ano inteiro
Em7(9)                          Dm7(9)
       E que você descubra que rir é bom
         Em7(9)             Am7
Mas que rir de tudo é desespero

Variação Segunda Parte:

Parte 1 de 2

    Em7(9)           Dm7(9)
E|--2--------2---------------0-------------|
B|--3----3---3-------------6---6-----------|
G|-------0---------------5-------5---------|
D|---------------------0-----------0-------|
A|-------------------5---------------------|
E|--0--0---0-------------------------------|

Refrão:

   G   Am7                    D11
Desejo     que você tenha a quem amar
              C4+(9)         Em7(9)
E quando estiver bem cansado
 G     Am7                    D11
Ainda,     exista amor pra recomeçar
       G      Am7
Pra recomeçar

Variação Refrão:

Parte 4 de 5

   D11
E|-----------------------------------------|
B|---3---3--3---3----3----3--3----3--------|
G|---0---0--0---0----0----0--0----0--------|
D|---4---4--4---4----4----4--4----4--------|
A|-5---5------5----5----5-------5----------|
E|-----------------------------------------|

( D11  C4+(9) ) (2x)

Terceira parte:

      D/F#
Eu desejo que você ganhe dinheiro
           C4+(9)
Pois é preciso viver também
         D/F#
E que você diga a ele, pelo menos uma vez
        Em7(9)         C4+(9)  D9
Quem é mesmo dono de quem

Parte 1 de 8

   D11
E|-----------------------------------------|
B|-------3--------3-------3-------3--------|
G|-----0--------0-------0-------0----------|
D|---4--------4-------4-------4------------|
A|-5--------5-------5-------5--------------|
E|-----------------------------------------|

Parte 2 de 8

   C4+(9)
E|-----------------------------------------|
B|-------3--------3-------3-------3--------|
G|-----0--------0-------0-------0----------|
D|---4--------4-------4-------4------------|
A|-3--------3-------3-------3--------------|
E|-----------------------------------------|

Parte 3 de 8

   C4+(9)
E|-----------------------------------------|
B|-------3-------3-------3-----------------|
G|-----0-------0-------0---2h3p2p0---------|
D|---4-------4-------4-------------2p0-----|
A|-3-------3-------3-------------------2p0-|
E|-----------------------------------------|

Parte 4 de 8

   D/F#
E|-----------------------------------------|
B|-------3--------3--------3-------3-------|
G|-----2--------2--------2-------2---------|
D|---0--------0--------0-------0-----------|
A|-----------------------------------------|
E|-2-------2---------2-------2-------------|

Parte 5 de 8

   Em7(9)            C4+(9)
E|-------2--------2------------------------|
B|-----3--------3----------3-------3-------|
G|---0--------0----------0-------0---------|
D|---------------------4-------4-----------|
A|-------------------3-------3-------------|
E|-0--------0------------------------------|

Parte 6 de 8

   D9
E|-0-----0------0---0-----0----------------|
B|-10----10-----10--10----10---------------|
G|-9h11--11-----11--11----11---------------|
D|-0-----0------0---0-----0----------------|
A|-----------------------------------------|
E|-0---------0----------0------------------|

Parte 7 de 8

   D9
E|-------0------0---0----------------------|
B|-------10-----10--10-----8--x-7-7-x-5----|
G|-------11-----11--11-----0--x-0-0-x-0----|
D|-------0------0---0---------x-----x-0----|
A|-------------------------7--x-5-5-x-3----|
E|-0---------0----------0------------------|

Parte 8 de 8

E|-----------------------------------------|
B|-5-5-5-5-5-5-5-5-------------------------|
G|-0-0-0-0-0-0-0-0-------------------------|
D|-0-0-0-0-0-0-0-0-------------------------|
A|-3-3-3-3-3-3-3-3-------------------------|
E|-----------------------------------------|

Refrão:

   G   Am7                    D11
Desejo     que você tenha a quem amar
              C4+(9)         Em7(9)
E quando estiver bem cansado
 G    Am7                    D11
Ainda,    exista amor pra recomeçar

   G   Am7                    D11
Desejo     que você tenha a quem amar
              C4+(9)         Em7(9)
E quando estiver bem cansado
 G    Am7                    D11
Ainda,    exista amor pra recomeçar
C/D        G      D11  C
    Pra recomeçar
G  D11    C
       Recomeçar
G  D11    C
       Recomeçar

( G  D11  F7M  Em7(9) )

Parte 1 de 2

       G                 D11        F7M
E|--------------------------------------1--|
B|-0h1-3-----------3---------3----------2--|
G|-0---0-0---0-----0-----0---0---0--2------|
D|-------------0---------4---4---4--3------|
A|-----------------------5-5---5-5---------|
E|-----3---3-----3-------------------------|

Parte 1 de 2

   Em7(9)
E|-2---------------------------------------|
B|-3---------------------------------------|
G|-0---------------------------------------|
D|-----------------------------------------|
A|-----------------------------------------|
E|-0---------------------------------------|
Acordes para:
    Colaboração e revisão:
    • deivid dias
    • Caroline

    0 comentários

      mostrar mais comentários

      Conseguiu tocar?

      21tocaram3ainda não

      Grave um vídeo tocando Amor Pra Recomeçar e mande pra gente!

      00:00 / 00:00
      outros vídeos desta música
      repetirqualidadeautomática
      Outro vídeos desta música
        00:00 / 00:00
        automática
        Capítulos
        • Início
        • Tocando a música
        • Acordes da Introdução - Segunda Parte
        • Tocando Introdução - Segunda Parte
        • Ensinando Introdução
        • Ensinando Primeira Parte
        • Ensinando Segunda Parte
        • Acordes do Refrão
        • Tocando Refrão
        • Ensinando Refrão (Parte 1)
        • Ensinando Refrão (Parte 2)
        • Ensinando Refrão (Parte 3)
        • Ensinando Refrão (Parte 4)
        • Ensinando Refrão (Parte 5)
        • Ensinando Variações
        • Acordes da Terceira Parte
        • Tocando Terceira Parte - Final
        • Ensinando Terceira Parte (Parte 1 e 2)
        • Ensinando Terceira Parte (Parte 3)
        • Ensinando Terceira Parte (Parte 4 - 8)
        • Ensinando Final
        • Encerramento
        OK