Cifra Club

Uma Noite de Paz

Fruto Sagrado

Cifra: Principal (violão e guitarra)
Selo Cifra Club: esta cifra foi revisada para atender aos critérios oficiais da nossa Equipe de Qualidade.
tom: G
Intro
E|-----0-----0-----0-----0-----0-----0-----0--------0----
B|------0---0-------0---0-------0---0-------0--------0---
G|---------0-----------0-----------0-------------0-------       2x
D|---------------------------2-----------2------4--------
A|---2-----------2----------0-----------3------5---------
E|--0-----------3----------------------------------------

Verso
E|---------------------------------------------------------
B|---------------------------------------------------------
G|-----4----4-------4----4-------4----4-------4-------0----
D|------2--2-2-------0--0-0----2--2--2-2----2--2----4--4---
A|---2----2-------2----2------0-----0------3-3-----5-5--5--
E|--0------------3-----------------------------------------

Refrão
        C          G      D      A5     E4
E|--3------3------2------0-------0---
B|--3------3------3------0-------0---
G|--0------0------2------2-------2---
D|--2------0------0------2-------2---
A|--3------2-------------0-------2---
E|--0------3---------------------0---

        C          G      D     D4      D
E|--3------3------2------3------2---
B|--3------3------3------3------3---
G|--0------0------2------2------2---
D|--2------0------0------0------0---
A|--3------2------------------------
E|--0------3------------------------

Ponte
E|--0---2---0-----0--------
B|--0---2---0-----0--------
G|--0---0---0-----2--------     8x
D|--2---2---2-----2--------
A|--2---2---2-----2--------
E|--0---0---0-----0--------

         C             D6
E|---0----------0-------
B|---1----------3-------
G|---0----------0-------        2x
D|---2----------4-------
A|---3----------5-------
E|----------------------


(intro 2x) Em  G  Am  C  D

Em                          G
  Você já esqueceu do aniversário de quem você ama?
Am                         C       D
  Já esqueceu o nome de alguém que te ama?
Em                         G
  Chega o fim do ano e é tudo igual
Am                              C          D
  Eu acho que vocês acham que eu sou débil mental
Em                             G
  São mais de trezentos dias debaixo da opressão
Am                                 C            D
  Medo de guerra, da bala perdida, medo do medo da solidão
Em                              G
  Eu vejo os shoppings lotados, ruas lotadas
Am                D
  E Avenidas decoradas por corações vazios

G C9  G     D      Am      G          C9
  Feliz Natal! Pra criança deixada na rua
C9    G      D      Am          G             C9
  Noite Infeliz! Pra aquele que não tem o que comer
C9    G     D      Am     G     C9
  Feliz Natal! Pro pai desempregado
C9    G     D     Am (stop)                  Em
  Noite sem paz! Pra aquele que a morte veio ver
 G   Am      C - D
  Uma noite de paz
      Em   G          Am         C - D
  Uma noite,         uma noite de paz

Em                          G
  Estava desconfortável, escuro e frio
Am                          C     D
  O cheiro dos animais invadia o curral
Em                              G
  Onde a virgem Maria trouxe ao mundo
    Am                    C     D
  O Príncipe da Paz, o único capaz
Em                          G
  De transformar o caos em harmonia
  Am              C   D
  A tempestade em calmaria
Em                    G
  Corações sujos como aquela estrebaria
         Am                      C            D
  Em um lindo shopping center decorado pro Natal

G C9  G     D   Am              D         C9
  Feliz Natal! O Natal que muita gente esqueceu
  C9  G     D   Am             G         C9
  Noite infeliz! Pra quem ainda não veio pra festa
  C9  G     D   Am             G         C9
  Feliz Natal! O mundo é quem ganhou o presente
  C9  G     D                                           Em
  Noite sem paz! Pra quem esqueceu daquele que nunca te esqueceu!

fica so no :   Em  -- seguindo a batida da musica

( Em  G  Am  C  D )

G C9  G     D   Am              D         C9
  Feliz Natal! Deixe-o nascer em seu coração
  C9  G     D   Am             G         C9
  Noite Feliz! O passado fica pra trás
  C9  G     D   Am             G         C9
  Feliz Natal! Você é o presente de Deus
     C9    G      Am (stop)                       Em
  Noite de Paz! A morte morreu de medo ao ver Jesus nascer
G      Am          C - D
  Uma noite de paz
    Em       G
  Uma noite
     Am            C - D
  Uma noite de paz

      Em      G
  Muito mais
     Am                C - D
  que uma noite de paz

    Em      G
  Muito mais
     Am                C - D
  que uma noite de paz

( Em  Am )
Outros vídeos desta música
63.681 exibições
    • ½ Tom
    • A
    • Bb
    • B
    • C
    • Db
    • D
    • Eb
    • E
    • F
    • F#
    • G
    • Ab
  • Adicionar à lista

Afinação da cifra

Afinador online

    0 comentários

    Ver todos os comentários

    Entre para o Cifra Club PRO

    Tenha acesso a benefícios exclusivos no App e no Site

    • Chega de anúncios

    • Mais recursos no app do Afinador

    • Atendimento Prioritário

    • Aumente seu limite de lista

    • Ajude a produzir mais conteúdo

    Cifra Club Pro

    Aproveite o Cifra Club com benefícios exclusivos e sem anúncios
    Cifra Club Pro
    Aproveite o Cifra Club com benefícios exclusivos e sem anúncios
    OK