Cifra Club

Modinha Para Gabriela

Gal Costa

Cifra: Principal (violão e guitarra)
Selo Cifra Club: esta cifra foi revisada para atender aos critérios oficiais da nossa Equipe de Qualidade.
tom: Ab (forma dos acordes no tom de G) Capotraste na 1ª casa
[Intro] Gm

[Dedilhado - Intro]

   Gm
E|-----------3----------------|
B|---------3------------------|
G|-------3--------------------|
D|-----5----------------------|
A|---5------------------------|
E|-3--------------------------|

[Dedilhado - Primeira Parte]

Parte 1 de 5
   Bb7M
E|---------1------------------|
B|-------3---3----------------|
G|-----2-------2--------------|
D|---3-----------3------------|
A|-1--------------------------|
E|----------------------------|

Parte 2 de 5
   Am7(13-)    Gm      Gm7M
E|-------8--------------------|
B|-----8------------3-----3---|
G|---8------------3-----3---3-|
D|--------------5-----4-------|
A|-0--------------------------|
E|------------3---------------|

   Gm7
E|----------------------------|
B|-----3----------------------|
G|---3---3--------------------|
D|-3--------------------------|
A|----------------------------|
E|----------------------------|

Parte 3 de 5
   C9     Am7(13-)
E|------3---------8-----------|
B|-----3--------8---8---------|
G|------------5-------8-------|
D|---2------5-----------5---5-|
A|-3------0---------------0---|
E|----------------------------|

E|----------------------------|
B|----------------------------|
G|-5--------------------------|
D|----------------------------|
A|----------------------------|
E|----------------------------|

Parte 4 de 5
   Ab7(9)  Ab7(5-)
E|----------------------------|
B|---------3------------------|
G|-----3-5--------------------|
D|---4------------------------|
A|----------------------------|
E|-4--------------------------|

Parte 5 de 5
   Gm                G
E|-----------3------------3---|
B|---------3---3---------3----|
G|-------3-------3------4-----|
D|-----5-----------5---5------|
A|---5----------------5-------|
E|-3-----------------3--------|

[Primeira Parte]

                         Bb7M
Quando eu vim para esse mundo
Am7(13-)                   Gm  Gm7M  Gm7
       Eu não atinava em nada
     C7(9)       Am7(13-)
Hoje eu sou Gabriela
           Ab7(9)  Ab7(5-)
Gabriela, iê!
              Gm  G
Meus camaradas

[Dedilhado - Refrão]

Parte 1 de 2
   Am7  D7
E|----------------------------|
B|-5-5----7-------------------|
G|-5-5----5-------------------|
D|-5-5----7-------------------|
A|------5---------------------|
E|-5--------------------------|

Parte 2 de 2
   G7M  Em7  Am7   D7
E|----------------------------|
B|-3-3----3----5-5---7--------|
G|-4-4----4----5-5---5--------|
D|-4-4----5----5-5---7--------|
A|-----------------5----------|
E|-3----0----5----------------|

[Refrão]

            Am7
Eu nasci assim
        D7   G7M
Eu cresci assim
       Em7     Am7
E sou mesmo assim
         D7       G7M
Vou ser sempre assim
     Em7  Am7  D7
Gabrie___la
G7M        Em7  Am7  D7
   Sempre Ga_briela

( G7M  Em7  Am7  D7 )

[Dedilhado - Passagem]

   G7M  Em7  Am7
E|----------------------------|
B|-3-3----3----5-5---7--------|
G|-4-4----4----5-5---5--------|
D|-4-4----5----5-5---7--------|
A|-----------------5----------|
E|-3----0----5----------------|

[Dedilhado - Refrão 2]

Parte 1 de 1
   G7M  Em7  Am7   D7
E|----------------------------|
B|-3-3----3----5-5---7--------|
G|-4-4----4----5-5---5--------|
D|-4-4----5----5-5---7--------|
A|-----------------5----------|
E|-3----0----5----------------|

[Refrão 2]

G7M         Em7  Am7
   Quem me ba_tizou
         D7  G7M
Quem me no_meou
       Em7     Am7
Pouco me importou
     D7         G7M
É assim que eu sou
     Em7  Am7  D7
Gabrie___la
G7M        Em7  Am7  D7
   Sempre Ga_briela

( G7M  Em7  Am7  D7 )
( G7M  Em7  Am7  D7 )
( G7M  Em7  Am7  D7 )
( G7M  Em7  Am7  D7  Gm )

[Dedilhado - Passagem]

Parte 1 de 2
   G7M  Em7  Am7
E|----------------------------|
B|-3-3----3----5-5---7--------|
G|-4-4----4----5-5---5--------|
D|-4-4----5----5-5---7--------|
A|-----------------5----------|
E|-3----0----5----------------|

Parte 2 de 2
   Gm
E|------3---------------------|
B|-----3----------------------|
G|----3-----------------------|
D|---5------------------------|
A|--5-------------------------|
E|-3--------------------------|

[Primeira Parte]

                         Bb7M
Quando eu vim para esse mundo
Am7(13-)                   Gm  Gm7M  Gm7
       Eu não atinava em nada
     C7(9)       Am7(13-)
Hoje eu sou Gabriela
           Ab7(9)  Ab7(5-)
Gabriela, iê!
              Gm  G
Meus camaradas

[Refrão]

            Am7
Eu nasci assim
        D7   G7M
Eu cresci assim
       Em7     Am7
E sou mesmo assim
         D7       G7M
Vou ser sempre assim
     Em7  Am7  D7
Gabrie___la
G7M        Em7  Am7  D7
   Sempre Ga_briela

( G7M  Em7  Am7  D7 )
( G7M  Em7  Am7  D7 )

[Refrão]

G7M        Em7      Am7
   Eu sou sempre igual
       D7     G7M
Não desejo o mal
         Em7  Am7
Amo o natu___ral
  D7    G7M
Etc. e tal
     Em7  Am7  D7
Gabrie___la
G7M        Em7  Am7  D7
   Sempre Ga_briela

( G7M  Em7  Am7  D7 )
( G7M  Em7  Am7  D7 )

[Refrão]

G7M       Em7  Am7
   Eu nasci assim
        D7   G7M
Eu cresci assim
     Em7     Am7
Sou mesmo assim
         D7       G7M
Vou ser sempre assim
     Em7  Am7  D7
Gabrie___la
G7M        Em7  Am7  D7
   Sempre Ga_briela

( G7M  Em7  Am7  D7 )

[Refrão]

G7M         Em7  Am7
   Quem me ba_tizou
         D7  G7M
Quem me no_meou
       Em7     Am7
Pouco me importou
     D7         G7M
É assim que eu sou
     Em7  Am7  D7
Gabrie___la
G7M        Em7  Am7  D7
   Sempre Ga_briela

[Final] G7M  Em7  Am7  D7
        G7M  Em7  Am7 
        D7  Gm  G

[Dedilhado - Final]

Parte 1 de 2
   G7M  Em7  Am7   D7
E|----------------------------|
B|-3-3----3----5-5---7--------|
G|-4-4----4----5-5---5--------|
D|-4-4----5----5-5---7--------|
A|-----------------5----------|
E|-3----0----5----------------|

Parte 2 de 2
   Gm           G
E|-----------3-------3--------|
B|---------3--------3---------|
G|-------3---------4----------|
D|-----5----------5-----------|
A|---5-----------5------------|
E|-3------------3-------------|
Outros vídeos desta música
    61.813 exibições
      • ½ Tom
      • A
      • Bb
      • B
      • C
      • Db
      • D
      • Eb
      • E
      • F
      • F#
      • G
      • Ab
    • Adicionar à lista

    Afinação da cifra

    Afinador online

      0 comentários

      Ver todos os comentários

      Entre para o Cifra Club PRO

      Tenha acesso a benefícios exclusivos no App e no Site

      • Chega de anúncios

      • Badges exclusivas

      • Mais recursos no app do Afinador

      • Atendimento Prioritário

      • Aumente seu limite de lista

      • Ajude a produzir mais conteúdo

      Cifra Club Pro

      Aproveite o Cifra Club com benefícios exclusivos e sem anúncios
      Cifra Club Pro
      Aproveite o Cifra Club com benefícios exclusivos e sem anúncios
      OK