Cifra Club

Fury Of The Wild

HammerFall

Cifra: Principal (violão e guitarra)
tom: G
Oscar Dronjak 
                                                           
D#||--------------------------|--------------------------| 
A#||--------------------------|--------------------------| 
F#||--------------------------|--------------------------| 
C#||--2--------7--------5-----|-----2--------7--8--7--5--| 
G#||--0--0--0--5--0--0--3--0--|--0--0--0--0--5--6--5--3--| 
D#||--------------------------|--------------------------| 
                                                                              
--------------------------|------------------------|--------------------------| 
--------------------------|------------------------|--------------------------| 
--------------------------|------------------------|--------------------------| 
--2--------7--------5-----|-----2-------------3----|--2--------7--------5-----| 
--0--0--0--5--0--0--3--0--|--0--0--0--0--5----1----|--0--0--0--5--0--0--3--0--| 
--------------------------|--------------3---------|--------------------------| 
                                                          
--------------------------|---------------------|------------------| 
--------------------------|---------------------|------------------| 
--------------------------|---------------------|------------------| 
-----2--------7--8--7--5--|--2------5------2----|------------------| 
--0--0--0--0--5--6--5--3--|--0------3------0----|------------------| 
--------------------------|---------------------|------------------| 
                                             
--------------------------|--------------------------| 
--------------------------|--------------------------| 
--------------------------|--------------------------| 
--2--------7--------5-----|-----2--------7--8--7--5--| 
--0--0--0--5--0--0--3--0--|--0--0--0--0--5--6--5--3--| 
--------------------------|--------------------------| 
                                                                    
--------------------------|------------------------|--------------------------| 
--------------------------|------------------------|--------------------------| 
--------------------------|------------------------|--------------------------| 
--2--------7--------5-----|-----2-------------3----|--2--------7--------5-----| 
--0--0--0--5--0--0--3--0--|--0--0--0--0--5----1----|--0--0--0--5--0--0--3--0--| 
--------------------------|--------------3---------|--------------------------| 
                                                       
--------------------------|---------------------|------------------| 
--------------------------|---------------------|------------------| 
--------------------------|---------------------|------------------| 
-----2--------7--8--7--5--|--2------5------2----|------------------| 
--0--0--0--0--5--6--5--3--|--0------3------0----|------------------| 
--------------------------|---------------------|------------------| 
                             
--------------------------|--------------------------| 
--------------------------|--------------------------| 
--------------------------|--------------------------| 
--2--------7--------5-----|-----2--------7--8--7--5--| 
--0--0--0--5--0--0--3--0--|--0--0--0--0--5--6--5--3--| 
--------------------------|--------------------------| 
                                                                      
--------------------------|------------------------|--------------------------| 
--------------------------|------------------------|--------------------------| 
--------------------------|------------------------|--------------------------| 
--2--------7--------5-----|-----2-------------3----|--2--------7--------5-----| 
--0--0--0--5--0--0--3--0--|--0--0--0--0--5----1----|--0--0--0--5--0--0--3--0--| 
--------------------------|--------------3---------|--------------------------| 
                                                         
--------------------------|---------------------|------------------| 
--------------------------|---------------------|------------------| 
--------------------------|---------------------|------------------| 
-----2--------7--8--7--5--|--2------5------2----|------------------| 
--0--0--0--0--5--6--5--3--|--0------3------0----|------------------| 
--------------------------|---------------------|------------------| 
                                             
--------------------------|--------------------------| 
--------------------------|--------------------------| 
--------------------------|--------------------------| 
--------------------------|--------------------------| 
--0--0--0--0--0--0--0--0--|--0--0--0--0--0--0--0--0--| 
--------------------------|--------------------------| 
                                                       
--------------------------|--------------------------| 
--------------------------|--------------------------| 
--------------------------|--------------------------| 
--2--------7--------5-----|-----2--------7--8--7--5--| 
--0--0--0--5--0--0--3--0--|--0--0--0--0--5--6--5--3--| 
--------------------------|--------------------------| 
                                               
--------------------------|--------------------------| 
--------------------------|--------------------------| 
--------------------------|--------------------------| 
--------------------------|--------------------------| 
--0--0--0--0--0--0--0--0--|--0--0--0--0--0--0--0--0--| 
--------------------------|--------------------------| 
                                                                   
--------------------------|------------------------|--------------------------| 
--------------------------|------------------------|--------------------------| 
--------------------------|------------------------|--------------------------| 
--2--------7--------5-----|-----2-------------3----|--------------------------| 
--0--0--0--5--0--0--3--0--|--0--0--0--0--5----1----|--0--0--0--0--0--0--0--0--| 
--------------------------|--------------3---------|--------------------------| 
                                              
--------------------------|--------------------------| 
--------------------------|--------------------------| 
--------------------------|--------------------------| 
--------------------------|--2--------7--------5-----| 
--0--0--0--0--0--0--0--0--|--0--0--0--5--0--0--3--0--| 
--------------------------|--------------------------| 
                                                  
--------------------------|--------------------------| 
--------------------------|--------------------------| 
--------------------------|--------------------------| 
-----2--------7--8--7--5--|--------------------------| 
--0--0--0--0--5--6--5--3--|--------------------------| 
--------------------------|--3--3--3--3--3--3--3--3--| 
                             
--------------------------|| 
--------------------------|| 
--------------------------|| 
--------------------------|| 
--------------------------|| 
--3--3--3--3--3--3--3--3--||
00:00 / 00:00
Outros vídeos desta música
Repetir
Outros vídeos desta música
Composição de Hammerfall
Colaboração e revisão:
  • Taino Vieira
1.182 exibições
    • ½ Tom
    • A
    • Bb
    • B
    • C
    • Db
    • D
    • Eb
    • E
    • F
    • F#
    • G
    • Ab
  • Adicionar à lista

    0 comentários

    Ver todos os comentários

    Conseguiu tocar?

    0 Tocaram 0 Ainda não

    Grave um vídeo tocando Fury Of The Wild e nos envie!

    00:00 / 00:00

    Cifra Club Pro

    Aproveite o Cifra Club com benefícios exclusivos e sem anúncios
    Cifra Club Pro
    Aproveite o Cifra Club com benefícios exclusivos e sem anúncios
    OK